» » »

Scary Kids Scaring Kids, Snake Devil Tabs (ver.3)

Artists:  A B C D E F G H I J K L M N O P Q R S T U V W X Y Z # 

Snake Devil Tabs (ver.3)

Scary Kids Scaring Kids Tabs
 Rating:
4/5 (8 votes)
Snake Devil lessons Tabs too difficult? Try these video lessons and learn fast
                HALF STEP DOWN

i tried
but thats one pretty solo

|-------------------------------|
|-------------------------------|
|----5----7----5----4----5------|
|----5----7----5----4----5------| x3
|-00---00---00---00---00--------|
|-------------------------------|
  ..   ..   ..   ..   ..

|-------------------------------|
|-------------------------------|
|----5----7----5----4-----7*----|
|----5----7----5----4-----------|
|-00---00---00---00---00--------|
|-------------------------------|
| ..   ..   ..   ..   ..
|
|            pick slidddeeee
|--------------------\\\\\\\\\\--\\
|------------------\\\\\\--------\\
|------------------\\\\\\\\\\----\\
|-----------------\\\\\\\\\\\\---\\
|-------------------\\\\\--------\\
|-------------\\\\\\\\\\\--------\\

|-------------------------------|
|-------------------------------|
|----5----7----5----4----5------|
|----5----7----5----4----5------| x2
|-00---00---00---00---00--------|
|-------------------------------|
  ..   ..   ..   ..   ..

|-------------------------------|
|-------------------------------|
|----5----7----5----4----5------|
|----5----7----5----4----5------|
|-------------------------------|
|-33---33---33---33---33--------|
  ..   ..   ..   ..   ..

 stupid crazy beginning solo thing. at least i tried
|------------------------------------------------|
|------------------------------------------------|
|-8p7p5-7p5--5-----------------------------------|
|----------7--7p5-7p5--5-------------------------|
|--------------------7--7p5-7p5/3-533-5p3p0------|
|------------------------------------------------|

 verse
|-------------------------------------------------------------------|
|-------------------------------------------------------------------|
|-222-22-2--------------222-22-2----------------222-22-2------------|
|-222-22-2------0-------222-22-2--2-------------222-22-2------0-----|
|-000-00-0----0---3p0---000-00-0----5-3-5p3-0---000-00-0----0---3p0-|
|----------0-3-------------------------------------------0-3--------|

|-----------------------|
|-----------------------|
|--------7-777-777------|
|-55-555-7-777-777------| that whole thing x2
|-55-555-5-555-555------|
|-33-333----------------|

|-----------------------------------|
|-----------------------------------|
|-----------------------------------|
|-333333333--5555555--------0-------|
|-333333333--5555555------0---3p0---|
|-111111111--3333333---0-3----------|

 completely wrong chorus
theres some weird lead part here i think
i dunno. someone whos actually good should tab this
|--------------------------------------------------------------------|
|--------------------------------------------------------------------|
|------------5555555555-------------1414141414-13-13-13-13-13-13-13--|
|-7777777777-5555555555-3333333333-----------------------------------|
|-7777777777-3333333333-3333333333--1212121212-11-11-11-11-11-11-11--|
|-5555555555------------1111111111-----------------------------------|
                          OR
|--------------------------------------------------------------------|
|--------------------------------------------------------------------|
|------------5555555555----------------------------------------------|
|-7777777777-5555555555-3333333333--777777-66666666------------------|
|-7777777777-3333333333-3333333333--777777-66666666------------------|
|-5555555555------------1111111111--555555-44444444------------------|

 verse again

 pre solo?
|------------------------------------------------------------|
|------------------------------------------------------------|
|------------------------------------------------------------|
|-3333333333-5555555555-2222222222-77777-55555--3333333333-2-|
|-3333333333-5555555555-2222222222-77777-55555--3333333333-2-|
|-1111111111-3333333333-0000000000-55555-33333--1111111111-0-|

solo rhythm
|------------------------------------------------------------------|
|------------------------------------------------------------------|
|---------------------------------------------------------5-5-5-5--|
|-77-777-777---5--77-777-777---5--33-333-333--5--77-777---5-5-5-5--| x2
|-77-777-777---5--77-777-777---5--33-333-333--5--77-777---3-3-3-3--|
|-55-555-555--53--55-555-555--53--11-111-111-13--55-555--5---------|
              .               .              .           .

|------------------------------------------------------------------|
|------------------------------------------------------------------|
|------------------------------------------------------------------|
|-3333333333-5555555555-2222222222-77777-55555--3333333333-222222--|
|-3333333333-5555555555-2222222222-77777-55555--3333333333-222222--|
|-1111111111-3333333333-0000000000-55555-33333--1111111111-000000--|

thats the best i can do
            
Submit corrections

comments powered by Disqus
↑ Back to top | Scary Kids Scaring Kids Tabs for Snake Devil. Lyrics for acoustic guitar and electric guitar. Tablatures and chords are parodies/interpretations of the original songs. You may use it for private study, scholarship, research or language learning purposes only