» » »

Snake Devil Tabs (ver.2)

Artists:  A B C D E F G H I J K L M N O P Q R S T U V W X Y Z # 

Snake Devil Tabs (ver.2)

Scary Kids Scaring Kids
Rating:
0/5 (0 votes)

Hard to play? Try these video lessons and learn fast.
                Scary Kids Scaring Kids
Snake Devil


Tabulature Legend:
p = pull off
h = hammer on
. = palm mute
b = bend
bb = bend 1.5 steps
\ = slide down
/ = slide up
* = pinch harmonic
T = tap



|-------------------------------|
|-------------------------------|
|----5----7----5----4----5------|
|----5----7----5----4----5------| x3
|-00---00---00---00---00--------|
|-------------------------------|
  ..   ..   ..   ..   ..

|-------------------------------|
|-------------------------------|
|----5----7----5----4-----7*----|
|----5----7----5----4-----------|
|-00---00---00---00---00--------|
|-------------------------------|
| ..   ..   ..   ..   ..

|-------------------------------|
|-------------------------------|
|----5----7----5----4----5------|
|----5----7----5----4----5------| x2
|-00---00---00---00---00--------|
|-------------------------------|
  ..   ..   ..   ..   ..

|-------------------------------|
|-------------------------------|
|----5----7----5----4----5------|
|----5----7----5----4----5------|
|-------------------------------|
|-33---33---33---33---33--------|
  ..   ..   ..   ..   ..

|-------------------------------------------|
|-------------------------------------------|
|-8p7p5-7p5--5------------------------------|
|----------7--7p5-7p5--5--------------------|
|--------------------7--7p5-7p5/3h5p3p0-3---|
|-------------------------------------------|

VERSE

|----------------------------------------------------------------------|
|----------------------------------------------------------------------|
|-222-22-2---------------222-22-2----------------222-22-2--------------|
|-222-22-2---------------222-22-2--2-------------222-22-2--------------|
|-000-00-0----0-3p0---0--000-00-0----5-3-5p3-0---000-00-0----0-3p0---0-|
|----------0-3------3-------------------------------------0-3------3---|
	   . .      .                . .                  . .      .

|-----------------------|
|-----------------------|
|--------7-777-777------|
|-55-555-7-777-777------|
|-55-555-5-555-555------|
|-33-333----------------|

|----------------------------------------------------------------------|
|----------------------------------------------------------------------|
|-222-22-2---------------222-22-2----------------222-22-2--------------|
|-222-22-2---------------222-22-2--2-------------222-22-2--------------|
|-000-00-0----0-3p0---0--000-00-0----5-3-5p3-0---000-00-0----0-3p0---0-|
|----------0-3------3-------------------------------------0-3------3---|
	   . .      .                . .                  . .      .

|-----------------------|
|-----------------------|
|--------7-777-777------|
|-55-555-7-777-777------|
|-55-555-5-555-555------|
|-33-333----------------|

|------------------------------------|
|------------------------------------|
|------------------------------------|
|-333333333--5555555-----------------|
|-333333333--5555555------0-3p0---0--|
|-111111111--3333333---0-3------3----|
		       . .      .

CHORUS

|----------------------------------------------------|
|----------------------------------------------------|
|------------5555555555------------------------------|
|-7777777777-5555555555-3333333333--777777-66666666--| x2
|-7777777777-3333333333-3333333333--777777-66666666--|
|-5555555555------------1111111111--555555-44444444--|

|---------------|
|---------------|
|---------------|
|---------------|
|----0-3p0---0--|
|-0-3------3----|
  . .      .

VERSE 2

|----------------------------------------------------------------------|
|----------------------------------------------------------------------|
|-222-22-2---------------222-22-2----------------222-22-2--------------|
|-222-22-2---------------222-22-2--2-------------222-22-2--------------|
|-000-00-0----0-3p0---0--000-00-0----5-3-5p3-0---000-00-0----0-3p0---0-|
|----------0-3------3-------------------------------------0-3------3---|
	   . .      .                . .                  . .      .

|-----------------------|
|-----------------------|
|--------7-777-777------|
|-55-555-7-777-777------|
|-55-555-5-555-555------|
|-33-333----------------|

|----------------------------------------------------------------------|
|----------------------------------------------------------------------|
|-222-22-2---------------222-22-2----------------222-22-2--------------|
|-222-22-2---------------222-22-2--2-------------222-22-2--------------|
|-000-00-0----0-3p0---0--000-00-0----5-3-5p3-0---000-00-0----0-3p0---0-|
|----------0-3------3-------------------------------------0-3------3---|
	   . .      .                . .                  . .      .

|-----------------------|
|-----------------------|
|--------7-777-777------|
|-55-555-7-777-777------|
|-55-555-5-555-555------|
|-33-333----------------|

|------------------------------------------------------------|
|------------------------------------------------------------|
|------------------------------------------------------------|
|-3333333333-5555555555-2222222222-77777-55555--3333332222-2-|
|-3333333333-5555555555-2222222222-77777-55555--3333332222-2-|
|-1111111111-3333333333-0000000000-55555-33333--1111110000-0-|

SOLO (not sure on this)

   T           T           T     
|-12-8-5-(x6)-10-8-5-(x2)-12-8-5-(x6)/15b-|
|-----------------------------------------|
|-----------------------------------------|
|-----------------------------------------|
|-----------------------------------------|
|-----------------------------------------|
                                           
|-----------------------------------------------15-17-17br-15-|
|--------------------------------------15-17-18---------------|
|-----------------------------14-16-17------------------------|
|--------------------14-15-17---------------------------------|
|-----------14-15-17------------------------------------------|
|--14-15-17---------------------------------------------------|
    .  .  .  .  .  . 


|------------------------------------------------------------------------------------------------|
|--5--5--5--5---5----------------------------------------------------13-15-13-15b-15br-13-15bvv--|
|--7b-7b-7b-7b--7b-5-7*-5-------------------------------14-14vvvv-/14----------------------------|
|-------------------------7p5-7-----------DUNNO THIS --------------------------------------------|
|-------------------------------5-7-5-7b*--------------------------------------------------------|
|------------------------------------------------------------------------------------------------|
				. . .


|----17-20p17-20p17---17-20p17-20p17------17-20p17-20p17---17-20p17-20p17---17-20b-20bb-20-17vv-|
|-/20---------------20---------------20p17---------------20---------------20--------------------|
|-----------------------------------------------------------------------------------------------|
|-----------------------------------------------------------------------------------------------|
|-----------------------------------------------------------------------------------------------|
|-----------------------------------------------------------------------------------------------|

|-----17---------17---------17---------17----------17---------------------|
|-------20p17------20p17------20p17-------20p17------20p17--17------------|
|-19b--------19b--------19b--------19b---------19b--------19--19p17-------|
|-----------------------------------------------------------------19\-----|
|-------------------------------------------------------------------------|
|-------------------------------------------------------------------------|

CHORUS

|----------------------------------------------------|
|----------------------------------------------------|
|------------5555555555------------------------------|
|-7777777777-5555555555-3333333333--777777-66666666--| x3
|-7777777777-3333333333-3333333333--777777-66666666--|
|-5555555555------------1111111111--555555-44444444--|

OUTRO

|-------------------------------|
|-------------------------------|
|----5----7----5----4----5------|
|----5----7----5----4----5------| x3
|-00---00---00---00---00--------|
|-------------------------------|
  ..   ..   ..   ..   ..

|-----------------------------------|
|-------------------------10--10----|
|----5----7----5----4-----12b-12b---|
|----5----7----5----4---------------|
|-00---00---00---00---00------------|
|-----------------------------------|
| ..   ..   ..   ..   ..
            
Hard to play? Try these video lessons and learn fast. | Correct




comments powered by Disqus
↑ Back to top | Tablatures and chords are parodies/interpretations of the original songs. You may use it for private study, scholarship, research or language learning purposes only