>
 >
Deep End

Deep End Guitar Tabs

Scary Kids Scaring Kids - Deep End chords, tabs, tablatures, lyrics

Guitar lessons | Add/correct | Request | Top 50 tabs Artists:  A B C D E F G H I J K L M N O P Q R S T U V W X Y Z 0-9

Deep End Guitar Tabs – Scary Kids Scaring Kids

CD, Sheet music, Poster

Do you like Deep End? Share with your friends now
Tabs

 there is a second guitar but its hard figure it out right now.

intro:
e---------------------------------------------------|
B----0-----0-----0-----0-----0-----0-----0-----0----|
G--3-----3-----3-----3-----3-----3-----3-----3------|
D------6-----6-----6-----6-----6-----6-----6--------|
A---------------------------------------------------|
D---------------------------------------------------|

e---------------------------------------------------   e----------------|
B-7po-7h9p7po-12p11-11p0-9h11-----------------------   B-9~-------------|
G---------------------------------------------------x6 G----------------|
D---------------------------------------------------   D----------------|
A---------------------------------------------------   A----------------|
D---------------------------------------------------   D----------------|
Verse
e---------------------------------------------------|
B----0-----0-----0-----0-----0-----0-----0-----0----|
G--3-----3-----3-----3-----3-----3-----3-----3------|
D------6-----6-----6-----6-----6-----6-----6--------|
A---------------------------------------------------|
D---------------------------------------------------|
e---------------------------------------------------|
B----0-----0-----0-----0-----0-----0-----0-----0----|
G--3-----3-----3-----3-----3-----3-----3-----3------|
D------4-----4-----4-----4-----4-----4-----4--------|
A---------------------------------------------------|
D---------------------------------------------------|
e---------------------------------------------------|
B----0-----0-----0-----0-----0-----0-----0-----0----|
G--3-----3-----3-----3-----3-----3-----3-----3------|
D------6-----6-----6-----6-----6-----6-----6--------|
A---------------------------------------------------|
D---------------------------------------------------|
e---------------------------------------------------|
B----0-----0-----0-----0-----0-----0-----0-----0----|
G--3-----3-----3-----3-----3-----3-----3-----3------|
D------4-----4-----4-----4-----4-----4-----4--------|
A---------------------------------------------------|
D---------------------------------------------------|

Chorus
e---------------------------------------------------   e----------------|
B-7po-7h9p7po-12p11-11p0-9h11-----------------------   B-9~-------------|
G---------------------------------------------------x6 G----------------|
D---------------------------------------------------   D----------------|
A---------------------------------------------------   A----------------|
D---------------------------------------------------   D----------------|

Verse
e---------------------------------------------------|
B----0-----0-----0-----0-----0-----0-----0-----0----|
G--3-----3-----3-----3-----3-----3-----3-----3------|
D------6-----6-----6-----6-----6-----6-----6--------|
A---------------------------------------------------|
D---------------------------------------------------|
e---------------------------------------------------|
B----0-----0-----0-----0-----0-----0-----0-----0----|
G--3-----3-----3-----3-----3-----3-----3-----3------|
D------4-----4-----4-----4-----4-----4-----4--------|
A---------------------------------------------------|
D---------------------------------------------------|
e---------------------------------------------------|
B----0-----0-----0-----0-----0-----0-----0-----0----|
G--3-----3-----3-----3-----3-----3-----3-----3------|
D------6-----6-----6-----6-----6-----6-----6--------|
A---------------------------------------------------|
D---------------------------------------------------|
e---------------------------------------------------|
B----0-----0-----0-----0-----0-----0-----0-----0----|
G--3-----3-----3-----3-----3-----3-----3-----3------|
D------4-----4-----4-----4-----4-----4-----4--------|
A---------------------------------------------------|
D---------------------------------------------------|

e-----------------------------------------------------------------|
B-----------------------------------------------------------------|
G---------4-------------------6----------------4-------3h4-4-3p1--|
D-2---------6-4-2----4----------6-4-6--6---------6-4-2------------|
A-2------------------4-----------------6--------------------------|
D-2-22222------------4-44444-----------6-66666--------------------|

e-----------------------------------------------------------------|
B-----------------------------------------------------------------|
G---------4-------------------6----------------4------------------|
D-2---------6-4-2----4----------6-4-6--6---------6-4-2------------|
A-2------------------4-----------------6--------------------------|
D-2-22222------------4-44444-----------6-66666---------66666666---|
Chorus
e---------------------------------------------------   e----------------|
B-7po-7h9p7po-12p11-11p0-9h11-----------------------   B-9~-------------|
G---------------------------------------------------x12G----------------|
D---------------------------------------------------   D----------------|
A---------------------------------------------------   A----------------|
D---------------------------------------------------   D----------------|
Break
e---------------------------------------------------|
B-----4---4-------4---4-------4---4-------5---5-----|
G---4---4---4---4---4---4---4---4---4---4---4---4---|
D-6-----------6-----------6-----------6-------------|
A---------------------------------------------------|
D---------------------------------------------------|

e---------------------------------------------------|
B-----4---4-------4---4-------0---0-------0---0-----|
G---3---3---3---3---3---3---3---3---3---3---3---3---|
D-4-----------4-----------4-----------4-------------|
A---------------------------------------------------|
D---------------------------------------------------|

e---------0-----------0-----------0-----------0-----|
B-----4-----------4-----------4-----------4---------|
G---4---4---4---4---4---4---4---4---4---4---4---4---|
D-2-----------2-----------2-----------2-------------|
A---------------------------------------------------|
D---------------------------------------------------|

e---------0-----------0-----------0-----------------|
B-----4-----------4-----------4---------------------|
G---4---4---4---4---4---4---4---4---4---------------|
D-4-----------4-----------4-------------------------|
A---------------------------------------------------|
D---------------------------------------------------|

e---------------------------------------------------|
B-----4---4-------4---4-------4---4-------5---5-----|
G---4---4---4---4---4---4---4---4---4---4---4---4---|
D-6-----------6-----------6-----------6-------------|
A---------------------------------------------------|
D---------------------------------------------------|

e---------------------------------------------------|
B-----4---4-------4---4-------0---0-------0---0-----|
G---3---3---3---3---3---3---3---3---3---3---3---3---|
D-4-----------4-----------4-----------4-------------|
A---------------------------------------------------|
D---------------------------------------------------|

e---------0-----------0-----------0-----------0-----|
B-----4-----------4-----------4-----------4---------|
G---4---4---4---4---4---4---4---4---4---4---4---4---|
D-2-----------2-----------2-----------2-------------|
A---------------------------------------------------|
D---------------------------------------------------|

e---------0-----------0-----------0-----------------|
B-----4-----------4-----------4---------------------|
G---4---4---4---4---4---4---4---4---4---------------|
D-4-----------4-----------4-------------------------|
A---------------------------------------------------|
D---------------------------------------------------|

e---------------------------------------------------|
B-----4---4-------4---4-------4---4-------5---5-----|
G---4---4---4---4---4---4---4---4---4---4---4---4---|
D-6-----------6-----------6-----------6-------------|
A---------------------------------------------------|
D---------------------------------------------------|

e---------------------------------------------------|
B-----4---4-------4---4-------0---0-------0---0-----|
G---3---3---3---3---3---3---3---3---3---3---3---3---|
D-4-----------4-----------4-----------4-------------|
A---------------------------------------------------|
D---------------------------------------------------|

e---------0-----------0-----------0-----------0-----|
B-----4-----------4-----------4-----------4---------|
G---4---4---4---4---4---4---4---4---4---4---4---4---|
D-2-----------2-----------2-----------2-------------|
A---------------------------------------------------|
D---------------------------------------------------|

e---------0-----------0-----------0-----------------|
B-----4-----------4-----------4---------------------|
G---4---4---4---4---4---4---4---4---4---------------|
D-4-----------4-----------4-------------------------|
A---------------------------------------------------|
D---------------------------------------------------|

Chorus
e---------------------------------------------------   e----------------|
B-7po-7h9p7po-12p11-11p0-9h11-----------------------   B-9~-------------|
G---------------------------------------------------x12G----------------|
D---------------------------------------------------   D----------------|
A---------------------------------------------------   A----------------|
D---------------------------------------------------   D----------------|





Comments


Popular Scary Kids Scaring Kids tabs & chords
Blood Runs Forever 1 Tabs
City Sleeps In Flames 1 Tabs
Empty Glasses Tabs
Empty Glasses 2 Tabs
Faces 1 Tabs
My Darkest Hour Tabs
Star Crossed Intro Tabs
The Only Medicine 4 Tabs
Star Crossed Ukulele
Watch Me Bleed Ukulele


Song lyrics



↑ Back to top | Tablatures and chords are parodies/interpretations of the original songs. You may use it for private study, scholarship, research or language learning purposes only
© 2014 AZChords.com Contact us | Privacy policy | DMCA | Add/correct tabs | Request tabs | Top 50 tabs