>
 >
Snake Devil

Snake Devil Guitar Tabs

Scary Kids Scaring Kids - Snake Devil chords, tabs, tablatures, lyrics

Guitar lessons | Add/correct | Request | Top 50 tabs Artists:  A B C D E F G H I J K L M N O P Q R S T U V W X Y Z 0-9

Snake Devil Guitar Tabs – Scary Kids Scaring Kids

CD, Sheet music, Poster

Do you like Snake Devil? Share with your friends now
Bass TabsTabsTabs v2Tabs v3
-------------------------------------------------------------------------------
-------------------------------------------------------------------------------

Tuning:Standard (EADGBe)

Please see the key at bottom before learning, and watch for tapping above the staff.
If you find any errors please send me an email with the fixed tab in it. 
Enjoy =P

--Intro--
  Guitar 1
e|---------------------------------------------------------------------------|
B|---------------------------------------------------------------------------|
G|------4-x-x-6-x-x-4-x-x-3-x-x-4----------4-x-x-6-x-x-4-x-x-3-x-x-4---------|
D|------4-x-x-6-x-x-4-x-x-4-x-x-4----------4-x-x-6-x-x-4-x-x-4-x-x-4---------| 
A|---------------------------------------------------------------------------|       
E|---------------------------------------------------------------------------|     
  Guitar 2                                                                            
e|---------------------------------------------------------------------------|        
B|---------------------------------------------------------------------------|        
G|---------------------------------------------------------------------------| 
D|---------------------------------------------------------------------------|
A|--6-6-----------------------------6--6-6-----------------------------------|
E|--4-4-----------------------------4--4-4-----------------------------------|

  Guitar 1
e|---------------------------------------------------------------------------|
B|---------------------------------------------------------------------------|
G|------4-x-x-6-x-x-4-x-x-3-x-x-4----------4-x-x-6-x-x-4-x-x-3-x-x-4---------|
D|------4-x-x-6-x-x-4-x-x-4-x-x-4----------4-x-x-6-x-x-4-x-x-4-x-x-4---------| 
A|---------------------------------------------------------------------------|        
E|---------------------------------------------------------------------------|        
  Guitar 2                                                                        
e|---------------------------------------------------------------------------|        
B|---------------------------------------------------------------------------|        
G|---------------------------------------------------------------------------| 
D|---------------------------------------------------------------------------|
A|--6-6--------------------------------6-6-----------------------------------|
E|--4-4--------------------------------4-4-----------------------------------|

  Guitar 1
e|---------------------------------------------------------------------------|
B|---------------------------------------------------------------------------|
G|------4-x-x-6-x-x-4-x-x-3-x-x-4----------4-x-x-6-x-x-4-x-x-3-x-x-4---------|
D|------4-x-x-6-x-x-4-x-x-4-x-x-4----------4-x-x-6-x-x-4-x-x-4-x-x-4---------|
A|---------------------------------------------------------------------------|        
E|---------------------------------------------------------------------------|        
  Guitar 2                                                                           
e|---------------------------------------------------------------------------|       
B|---------------------------------------------------------------------------|        
G|---------------------------------------------------------------------------|
D|---------------------------------------------------------------------------|
A|\x-6--6-x-x-6-x-x-6-x-x-6-x-x-6------6-6-6-x-x-6-x-x-6-x-x-6-x-x-6---------|
E|\x-4--4-x-x-4-x-x-4-x-x-4-x-x-4------4-4-4-x-x-4-x-x-4-x-x-4-x-x-4---------|

  Guitar 1
e|---------------------------------------------------------------------------|
B|---------------------------------------------------------------------------|
G|------4-x-x-6-x-x-4-x-x-3-x-x-4-------6p4--4-------------------------------|
D|------4-x-x-6-x-x-4-x-x-4-x-x-4----------h6-6p4-6p4--4---------------------| 
A|---------------------------------------------------h6-6p4-6p4--4-----------|       
E|-------------------------------------------------------------h7-7p6p4------|     
  Guitar 2                                                                           
e|---------------------------------------------------------------------------|        
B|---------------------------------------------------------------------------|        
G|---------------------------------------------------------------------------| 
D|---------------------------------------------------------------------------|
A|---2--2-x-x-2-x-x-2-x-x-2-x-x-2--------4-----------------------------------|
E|---0--0-x-x-0-x-x-0-x-x-0-x-x-0--------2-----------------------------------|

--Verse--
  Guitar 1
e|---------------------------------------------------------------------------|
B|---------------------------------------------------------------------------|
G|---------------------------------------------------------------------------|
D|--------------------------------------------------------1------------------| 
A|----------------------------2----------------------------4p2h4p2-----------|        
E|-----------------------4p2h4-4p2h4------------------------------2h4--------|        
  Guitar 2                                                                            
e|---------------------------------------------------------------------------|        
B|---------------------------------------------------------------------------|       
G|---------------------------------------------------------------------------|
D|-6--6-6--6--6-6-6--6---------------6--6-6--6--6-6-6--6---------------------|
A|-6--6-6--6--6-6-6--6---------------6--6-6--6--6-6-6--6---------------------|
E|-4--4-4--4--4-4-4--4---------------4--4-4--4--4-4-4--4---------------------|

  Guitar 1
e|---------------------------------------------------------------------------|
B|---------------------------------------------------------------------------|
G|---------------------------------------6-6--6--6-6-------------------------|
D|---------------------------------------6-6--6--6-6-------------------------|
A|------------------------2--------------4-4--4--4-4-------------------------|        
E|-------------------4p2h4-4p2-2---------------------------------------------|        
  Guitar 2                                                                            
e|---------------------------------------------------------------------------|        
B|---------------------------------------------------------------------------|        
G|---------------------------------------6-6--6--6-6-------------------------|
D|-6--6-6--6--6-6-6--6---------4-4-4-4---6-6--6--6-6-------------------------|
A|-6--6-6--6--6-6-6--6---------4-4-4-4---4-4--4--4-4-------------------------|
E|-4--4-4--4--4-4-4--4---------2-2-2-2---------------------------------------|

  Guitar 1
e|---------------------------------------------------------------------------|
B|---------------------------------------------------------------------------|
G|---------------------------------------------------------------------------|
D|--------------------------------------------------------1------------------| 
A|----------------------------2----------------------------4p2h4p2-----------|        
E|-----------------------4p2h4-4p2h4------------------------------2h4--------|      
  Guitar 2                                                                            
e|---------------------------------------------------------------------------|       
B|---------------------------------------------------------------------------|        
G|---------------------------------------------------------------------------|
D|-6--6-6--6--6-6-6--6---------------6--6-6--6--6-6-6--6---------------------|
A|-6--6-6--6--6-6-6--6---------------6--6-6--6--6-6-6--6---------------------|
E|-4--4-4--4--4-4-4--4---------------4--4-4--4--4-4-4--4---------------------|

  Guitar 1
e|---------------------------------------------------------------------------|
B|---------------------------------------------------------------------------|
G|---------------------------------------6-6--6--6-6-------------------------|
D|---------------------------------------6-6--6--6-6-------------------------| 
A|------------------------2--------------4-4--4--4-4-------------------------|        
E|-------------------4p2h4-4p2-2---------------------------------------------|        
  Guitar 2                                                                            
e|---------------------------------------------------------------------------|        
B|---------------------------------------------------------------------------|        
G|---------------------------------------6-6--6--6-6-------------------------| 
D|-6--6-6--6--6-6-6--6---------4-4-4-4---6-6--6--6-6-------------------------|
A|-6--6-6--6--6-6-6--6---------4-4-4-4---4-4--4--4-4-------------------------|
E|-4--4-4--4--4-4-4--4---------2-2-2-2---------------------------------------|

  Guitar 1
e|---------------------------------------------------------------------------|
B|---------------------------------------------------------------------------|
G|---------------------------------------------------------------------------|
D|--------------------------------------------------------1------------------| 
A|----------------------------2----------------------------4p2h4p2-----------|        
E|-----------------------4p2h4-4p2h4------------------------------2h4--------|     
  Guitar 2                                                                            
e|---------------------------------------------------------------------------|        
B|---------------------------------------------------------------------------|        
G|---------------------------------------------------------------------------| 
D|-6--6-6--6--6-6-6--6---------------6--6-6--6--6-6-6--6---------------------|
A|-6--6-6--6--6-6-6--6---------------6--6-6--6--6-6-6--6---------------------|
E|-4--4-4--4--4-4-4--4---------------4--4-4--4--4-4-4--4---------------------|

  Guitar 1
e|---------------------------------------------------------------------------|
B|---------------------------------------------------------------------------|
G|---------------------------------------6-6--6--6-6-------------------------|
D|---------------------------------------6-6--6--6-6-------------------------|
A|------------------------2--------------4-4--4--4-4-------------------------|        
E|-------------------4p2h4-4p2-2---------------------------------------------|      
  Guitar 2                                                                            
e|---------------------------------------------------------------------------|        
B|---------------------------------------------------------------------------|        
G|---------------------------------------6-6--6--6-6-------------------------| 
D|-6--6-6--6--6-6-6--6---------4-4-4-4---6-6--6--6-6-------------------------|
A|-6--6-6--6--6-6-6--6---------4-4-4-4---4-4--4--4-4-------------------------|
E|-4--4-4--4--4-4-4--4---------2-2-2-2---------------------------------------|

--prechorus--
  Guitar 1
e|---------------------------------------------------------------------------|
B|---------------------------------------------------------------------------|
G|---------------------------------------------------------------------------|
D|---------------------------------------------------------------------------|
A|---------------------------------------------------2-----------------------|       
E|----------------------------------------------4p2h4-4p2--------------------|    
  Guitar 2                                                                          
e|---------------------------------------------------------------------------|        
B|---------------------------------------------------------------------------|        
G|---------------------------------------------------------------------------| 
D|--2-2-2-2--2-2-2-2----4-4-4-4--4-4-4-4-------------------------------------|
A|--2-2-2-2--2-2-2-2----4-4-4-4--4-4-4-4-------------------------------------|
E|--0-0-0-0--0-0-0-0----2-2-2-2--2-2-2-2-------------------------------------|

--chorus--
  Guitar 1
e|---------------------------------------------------------------------------|
B|---------------------------------------------------------------------------|
G|--13-13-13-13-13-13--16-16-16-16-16-16--13-13-13-13-13--3333/12-12-12-12---|
D|--x--x--x--x--x--x---x--x--x--x--x--x---x--x--x--x--x---xxxx/x--x--x--x----| 
A|--11-11-11-11-11-11--14-14-14-14-14-14--11-11-11-11-11--1111/10-10-10-10---|        
E|---------------------------------------------------------------------------|        
  Guitar 2                                                                            
e|---------------------------------------------------------------------------|        
B|---------------------------------------------------------------------------|        
G|---------------------------------------------------------------------------|
D|--6-6-6-6--6-6-6-6---9-9-9-9--9-9-9-9---2-2-2-2--2-2-2-2-------------------|
A|--6-6-6-6--6-6-6-6---9-9-9-9--9-9-9-9---2-2-2-2--2-2-2-2-------------------|
E|--4-4-4-4--4-4-4-4---7-7-7-7--7-7-7-7---0-0-0-0--0-0-0-0--3-3-3-3-3-3-3-3--|

  Guitar 1
e|---------------------------------------------------------------------------|
B|---------------------------------------------------------------------------|
G|--13-13-13-13-13-13--16-16-16-16-16-16--13-13-13-13-13----33333------------|
D|--x--x--x--x--x--x---x--x--x--x--x--x---x--x--x--x--x-----xxxxx------------| 
A|--11-11-11-11-11-11--14-14-14-14-14-14--11-11-11-11-11----11111------2-----|        
E|----------------------------------------------------------------4p2h4-4p2--|     
  Guitar 2                                                                           
e|---------------------------------------------------------------------------|        
B|---------------------------------------------------------------------------|        
G|---------------------------------------------------------------------------|
D|--6-6-6-6--6-6-6-6---9-9-9-9--9-9-9-9---2-2-2-2--2-2-2-2-------------------|
A|--6-6-6-6--6-6-6-6---9-9-9-9--9-9-9-9---2-2-2-2--2-2-2-2-------------------|
E|--4-4-4-4--4-4-4-4---7-7-7-7--7-7-7-7---0-0-0-0--0-0-0-0--3----------------|

--Verse--
  Guitar 1
e|---------------------------------------------------------------------------|
B|---------------------------------------------------------------------------|
G|---------------------------------------------------------------------------|
D|--------------------------------------------------------1------------------| 
A|----------------------------2----------------------------4p2h4p2-----------|        
E|-----------------------4p2h4-4p2h4------------------------------2h4--------|        
  Guitar 2                                                                          
e|---------------------------------------------------------------------------|        
B|---------------------------------------------------------------------------|        
G|---------------------------------------------------------------------------| 
D|-6--6-6--6--6-6-6--6---------------6--6-6--6--6-6-6--6---------------------|
A|-6--6-6--6--6-6-6--6---------------6--6-6--6--6-6-6--6---------------------|
E|-4--4-4--4--4-4-4--4---------------4--4-4--4--4-4-4--4---------------------|

  Guitar 1
e|---------------------------------------------------------------------------|
B|---------------------------------------------------------------------------|
G|---------------------------------------6-6--6--6-6-------------------------|
D|---------------------------------------6-6--6--6-6-------------------------| 
A|------------------------2--------------4-4--4--4-4-------------------------|        
E|-------------------4p2h4-4p2-2---------------------------------------------|      
  Guitar 2                                                                         
e|---------------------------------------------------------------------------|        
B|---------------------------------------------------------------------------|        
G|---------------------------------------6-6--6--6-6-------------------------| 
D|-6--6-6--6--6-6-6--6---------4-4-4-4---6-6--6--6-6-------------------------|
A|-6--6-6--6--6-6-6--6---------4-4-4-4---4-4--4--4-4-------------------------|
E|-4--4-4--4--4-4-4--4---------2-2-2-2---------------------------------------|

  Guitar 1
e|---------------------------------------------------------------------------|
B|---------------------------------------------------------------------------|
G|---------------------------------------------------------------------------|
D|--------------------------------------------------------1------------------| 
A|----------------------------2----------------------------4p2h4p2-----------|        
E|-----------------------4p2h4-4p2h4------------------------------2h4--------|       
  Guitar 2                                                                            
e|---------------------------------------------------------------------------|        
B|---------------------------------------------------------------------------|        
G|---------------------------------------------------------------------------| 
D|-6--6-6--6--6-6-6--6---------------6--6-6--6--6-6-6--6---------------------|
A|-6--6-6--6--6-6-6--6---------------6--6-6--6--6-6-6--6---------------------|
E|-4--4-4--4--4-4-4--4---------------4--4-4--4--4-4-4--4---------------------|

  Guitar 1
e|---------------------------------------------------------------------------|
B|---------------------------------------------------------------------------|
G|---------------------------------------6-6--6--6-6-------------------------|
D|---------------------------------------6-6--6--6-6-------------------------| 
A|------------------------2--------------4-4--4--4-4-------------------------|        
E|-------------------4p2h4-4p2-2---------------------------------------------|        
  Guitar 2                                                                            
e|---------------------------------------------------------------------------|        
B|---------------------------------------------------------------------------|        
G|---------------------------------------6-6--6--6-6-------------------------|
D|-6--6-6--6--6-6-6--6---------4-4-4-4---6-6--6--6-6-------------------------|
A|-6--6-6--6--6-6-6--6---------4-4-4-4---4-4--4--4-4-------------------------|
E|-4--4-4--4--4-4-4--4---------2-2-2-2---------------------------------------|

--presolo--
  Guitar 1
e|---------------------------------------------------------------------------|
B|---------------------------------------------------------------------------|
G|---------------------------------------------------------------------------|
D|---------------------------------------------------------------------------|
A|---------------------------------------------------------------------------|        
E|---------------------------------------------------------------------------|        
  Guitar 2                                                                            
e|---------------------------------------------------------------------------|        
B|---------------------------------------------------------------------------|        
G|---------------------------------------------------------------------------| 
D|--2-2-2-2--2-2-2-2---4-4-4-4--4-4-4-4---5-5-5-5--5-5-5-5---6-6-6-6-4-4-4-4-|
A|--2-2-2-2--2-2-2-2---4-4-4-4--4-4-4-4---5-5-5-5--5-5-5-5---6-6-6-6-4-4-4-4-|
E|--0-0-0-0--0-0-0-0---2-2-2-2--2-2-2-2---3-3-3-3--3-3-3-3---4-4-4-4-2-2-2-2-|

  Guitar 1
e|---------------------------------------------------------------------------|
B|---------------------------------------------------------------------------|
G|---------------------------------------------------------------------------|
D|---------------------------------------------------------------------------| 
A|---------------------------------------------------------------------------|        
E|---------------------------------------------------------------------------|       
  Guitar 2                                                                            
e|---------------------------------------------------------------------------|        
B|---------------------------------------------------------------------------|        
G|---------------------------------------------------------------------------| 
D|-2-2-2-2--2-2-2-2---5-5-5-5--5-5-5-5---------------------------------------|
A|-2-2-2-2--2-2-2-2---5-5-5-5--5-5-5-5---------------------------------------|
E|-0-0-0-0--0-0-0-0---3-3-3-3--3-3-3-3---------------------------------------|

--Solo--
  Guitar 1
   +      +      +       +      +      +      +      +      +      +     +   
e|-11-4h7-11-4h7-11-4h-7-11-4h7-11-4h7-11-4h7-11-4h7-11-4h7-11-4h7-114h7-11-4|
B|---------------------------------------------------------------------------|
G|---------------------------------------------------------------------------|
D|---------------------------------------------------------------------------| 
A|---------------------------------------------------------------------------|        
E|---------------------------------------------------------------------------|        
  Guitar 2                                                                            
e|---------------------------------------------------------------------------|        
B|---------------------------------------------------------------------------|        
G|---------------------------------------------------------------------------|
D|-6-6-x-6-6-x-6-6-x-6-6-x-6-6-x-6-6-x-6-6-x-6-6-x-6-6-x-6-6-x-6-6-x-6-6-x-6-|
A|-6-6-x-6-6-x-6-6-x-6-6-x-6-6-x-6-6-x-6-6-x-6-6-x-6-6-x-6-6-x-6-6-x-6-6-x-6-|
E|-4-4-x-4-4-x-4-4-x-4-4-x-4-4-x-4-4-x-4-4-x-4-4-x-4-4-x-4-4-x-4-4-x-4-4-x-4-|

  Guitar 1
     +      +      +           |(im pretty sure he uses a reverb/delay pedal here)|
e|h7-11-4h7-11-4h7-11-4h7-b14---------------------------4h6h7-6-*b6\4--------|
B|-------------------------------------------------4h5h7---------------------|
G|--------------------------------------------4h6h8--------------------------|
D|---------------------------------------4h6h8-------------------------------| 
A|----------------------------------4h6h7------------------------------------|        
E|-----------------------------4h6h7-----------------------------------------|        
  Guitar 2                                                                           
e|---------------------------------------------------------------------------|        
B|---------------------------------------------------------------------------|        
G|---------------------------------------------------------------------------| 
D|6-x-6-6-x-6-6-x-6-6-x-6-6-x--2-2-x-2-2-x-2-2-x-2-2-x-2-2-x-2-6-x-6-9-9-9-9-|
A|6-x-6-6-x-6-6-x-6-6-x-6-6-x--2-2-x-2-2-x-2-2-x-2-2-x-2-2-x-2-6-x-6-9-9-9-9-|
E|4-x-4-4-x-4-4-x-4-4-x-4-4-x--0-0-x-0-0-x-0-0-x-0-0-x-0-0-x-0-4-x-4-7-7-7-7-|
  Guitar 1
                                                                    +
e|---------------------------------------------------------------------------|        
B|---------------------------------------------------------------------------|        
G|-*b7-*b7-*b7-*b7-*b7-6p4-6-4------4----------------------------------8-4p1-| 
D|----------------------------6p4h6--6p4--------6---------4h6-------6--------| 
A|--------------------------------------6p5p4----------4h6----6p4-4----------|        
E|-------------------------------------------7p4--4h6h7----------7-7---------|       
                                   PM..............................|                  
  Guitar 2                                                                            
e|---------------------------------------------------------------------------|        
B|---------------------------------------------------------------------------|        
G|---------------------------------------------------------------------------| 
D|6-x-6-6-x-6-6-x-6-6-x-6-6-x--6-6-x-6-6-x-6-6-x-2-2-x-2-2-x-2-6-x-6-6-x-6-6-|
A|6-x-6-6-x-6-6-x-6-6-x-6-6-x--6-6-x-6-6-x-6-6-x-2-2-x-2-2-x-2-6-x-6-6-x-6-6-|
E|4-x-4-4-x-4-4-x-4-4-x-4-4-x--4-4-x-4-4-x-4-4-x-0-0-x-0-0-x-0-4-x-4-4-x-4-4-|
  Guitar 1                                                  +           +   
e|-----------------------------------------------------------19-16p14p11-19--|
B|-------------------------------------------b14-14p12h~12-------------------|
G|---------------------------~13~13------------------------------------------|
D|9-4p1-11-4p1-12-4p1-13-4p1-----------11h3----------------------------------| 
A|----------------------------------11h3-------------------------------------|        
E|---------------------------------------------------------------------------|        
  Guitar 2                                                                          
e|---------------------------------------------------------------------------|        
B|---------------------------------------------------------------------------|        
G|---------------------------------------------------------------------------| 
D|x-6-6-x-6-6-x-6-6-x-6-6--2-2-2-2-2-2-2-2-2-4-4-4-4-4-4-4-5-5-5-5-5-5-5-5-5-|
A|x-6-6-x-6-6-x-6-6-x-6-6--2-2-2-2-2-2-2-2-2-4-4-4-4-4-4-4-5-5-5-5-5-5-5-5-5-|
E|x-4-4-x-4-4-x-4-4-x-4-4--0-0-0-0-0-0-0-0-0-2-2-2-2-2-2-2-3-3-3-3-3-3-3-3-3-|

  Guitar 1  +          
e|-16p14p11-19-16p14p11-21-b21-19p16-----------------------------------------|
B|---------------------------------------------------------------------------|
G|-----------------------------------13p11-----13p11-----13p11------13p11----|
D|----------------------------------------13p11-----13p11-----13p11-----13p11| 
A|---------------------------------------------------------------------------|        
E|---------------------------------------------------------------------------|       
  Guitar 2                                                                            
e|---------------------------------------------------------------------------|        
B|---------------------------------------------------------------------------|        
G|---------------------------------------------------------------------------| 
D|-5-5-5-5-5-5-5-5-5-5-6-6-6-6-4-4-4-4-2-2-2-2-2-2-2-2-2-2-2-2-2-2-2-2-2-2-2-|
A|-5-5-5-5-5-5-5-5-5-5-6-6-6-6-4-4-4-4-2-2-2-2-2-2-2-2-2-2-2-2-2-2-2-2-2-2-2-|
E|-3-3-3-3-3-3-3-3-3-3-4-4-4-4-2-2-2-2-0-0-0-0-0-0-0-0-0-0-0-0-0-0-0-0-0-0-0-|

  Guitar 1
e|---------------------------------------------------------------------------|
B|---------------------------------------------------------------------------|
G|-13p11---------------------------------------------------------------------|
D|------13p11----------------------------------------------------------------| 
A|-----------14p11-~11-------------------------------------------------------|        
E|---------------------------------------------------------------------------|       
  Guitar 2                                                                            
e|---------------------------------------------------------------------------|        
B|---------------------------------------------------------------------------|        
G|---------------------------------------------------------------------------| 
D|-4-4-4-4-4-4-4-4-----------------------------------------------------------|
A|-4-4-4-4-4-4-4-4-----------------------------------------------------------|
E|-2-2-2-2-2-2-2-2-----------------------------------------------------------|

  Guitar 1
e|---------------------------------------------------------------------------|
B|---------------------------------------------------------------------------|
G|--13-13-13-13-13-13--16-16-16-16-16-16--13-13-13-13-13--3333/12-12-12-12---|
D|--x--x--x--x--x--x---x--x--x--x--x--x---x--x--x--x--x---xxxx/x--x--x--x----| 
A|--11-11-11-11-11-11--14-14-14-14-14-14--11-11-11-11-11--1111/10-10-10-10---|        
E|---------------------------------------------------------------------------|        
  Guitar 2                                                                          
e|---------------------------------------------------------------------------|        
B|---------------------------------------------------------------------------|        
G|---------------------------------------------------------------------------| 
D|--6-6-6-6--6-6-6-6---9-9-9-9--9-9-9-9---2-2-2-2--2-2-2-2-------------------|
A|--6-6-6-6--6-6-6-6---9-9-9-9--9-9-9-9---2-2-2-2--2-2-2-2-------------------|
E|--4-4-4-4--4-4-4-4---7-7-7-7--7-7-7-7---0-0-0-0--0-0-0-0--3-3-3-3-3-3-3-3--|

  Guitar 1
e|---------------------------------------------------------------------------|
B|---------------------------------------------------------------------------|
G|--13-13-13-13-13-13--16-16-16-16-16-16--13-13-13-13-13--3333/12-12-12-12---|
D|--x--x--x--x--x--x---x--x--x--x--x--x---x--x--x--x--x---xxxx/x--x--x--x----| 
A|--11-11-11-11-11-11--14-14-14-14-14-14--11-11-11-11-11--1111/10-10-10-10---|        
E|---------------------------------------------------------------------------|       
  Guitar 2                                                                           
e|---------------------------------------------------------------------------|        
B|---------------------------------------------------------------------------|        
G|---------------------------------------------------------------------------| 
D|--6-6-6-6--6-6-6-6---9-9-9-9--9-9-9-9---2-2-2-2--2-2-2-2-------------------|
A|--6-6-6-6--6-6-6-6---9-9-9-9--9-9-9-9---2-2-2-2--2-2-2-2-------------------|
E|--4-4-4-4--4-4-4-4---7-7-7-7--7-7-7-7---0-0-0-0--0-0-0-0--3-3-3-3-3-3-3-3--|

  Guitar 1
e|---------------------------------------------------------------------------|
B|---------------------------------------------------------------------------|
G|--13-13-13-13-13-13--16-16-16-16-16-16--13-13-13-13-13--3333/12-12-12-12---|
D|--x--x--x--x--x--x---x--x--x--x--x--x---x--x--x--x--x---xxxx/x--x--x--x----|
A|--11-11-11-11-11-11--14-14-14-14-14-14--11-11-11-11-11--1111/10-10-10-10---|        
E|---------------------------------------------------------------------------|        
  Guitar 2                                                                            
e|---------------------------------------------------------------------------|        
B|---------------------------------------------------------------------------|        
G|---------------------------------------------------------------------------|
D|--6-6-6-6--6-6-6-6---9-9-9-9--9-9-9-9---2-2-2-2--2-2-2-2-------------------|
A|--6-6-6-6--6-6-6-6---9-9-9-9--9-9-9-9---2-2-2-2--2-2-2-2-------------------|
E|--4-4-4-4--4-4-4-4---7-7-7-7--7-7-7-7---0-0-0-0--0-0-0-0--3-3-3-3-3-3-3-3--|

 Guitar 1
e|---------------------------------------------------------------------------|
B|---------------------------------------------------------------------------|
G|3333-12-12-12-12-----------------------------------------------------------|
D|xxxx/x--x--x--x------------------------------------------------------------| 
A|1111/10-10-10-10-----------------------------------------------------------|        
E|---------------------------------------------------------------------------|       
  Guitar 2                                                                            
e|---------------------------------------------------------------------------|        
B|---------------------------------------------------------------------------|        
G|---------------------------------------------------------------------------| 
D|---------------------------------------------------------------------------|
A|---------------------------------------------------------------------------|
E|-3-3-3-3-3-3-3-3-----------------------------------------------------------|

--Outro--
  Guitar 1
e|---------------------------------------------------------------------------|
B|---------------------------------------------------------------------------|
G|------4-x-x-6-x-x-4-x-x-3-x-x-4----------4-x-x-6-x-x-4-x-x-3-x-x-4---------|
D|------4-x-x-6-x-x-4-x-x-4-x-x-4----------4-x-x-6-x-x-4-x-x-4-x-x-4---------| 
A|---------------------------------------------------------------------------|        
E|---------------------------------------------------------------------------|        
  Guitar 2                                                                            
e|---------------------------------------------------------------------------|        
B|---------------------------------------------------------------------------|        
G|---------------------------------------------------------------------------| 
D|---------------------------------------------------------------------------|
A|--6-6-----------------------------6--6-6-----------------------------------|
E|--4-4-----------------------------4--4-4-----------------------------------|

  Guitar 1
e|---------------------------------------------------------------------------|
B|---------------------------------------------------------------------------|
G|------4-x-x-6-x-x-4-x-x-3-x-x-4----------4-x-x-6-x-x-4-x-x-3-x-x-4---------|
D|------4-x-x-6-x-x-4-x-x-4-x-x-4----------4-x-x-6-x-x-4-x-x-4-x-x-4---------| 
A|---------------------------------------------------------------------------|        
E|---------------------------------------------------------------------------|        
  Guitar 2                                                                            
e|---------------------------------------------------------------------------|        
B|---------------------------------------------------------------------------|        
G|---------------------------------------------------------------------------| 
D|---------------------------------------------------------------------------|
A|--6-6--------------------------------6-6-----------------------------------|
E|--4-4--------------------------------4-4-----------------------------------|

  Guitar 1
e|---------------------------------------------------------------------------|
B|---------------------------------------------------------------------------|
G|------4-x-x-6-x-x-4-x-x-3-x-x-4----------4-x-x-6-x-x-4-x-x-3-x-x-4---------|
D|------4-x-x-6-x-x-4-x-x-4-x-x-4----------4-x-x-6-x-x-4-x-x-4-x-x-4---------|
A|---------------------------------------------------------------------------|        
E|---------------------------------------------------------------------------|        
  Guitar 2                                                                            
e|---------------------------------------------------------------------------|        
B|---------------------------------------------------------------------------|        
G|---------------------------------------------------------------------------| 
D|---------------------------------------------------------------------------|
A|--6-6-----------------------------6--6-6-----------------------------------|
E|--4-4-----------------------------4--4-4-----------------------------------|

  Guitar 1
e|---------------------------------------------------------------------------|
B|---------------------------------------------------------------------------|
G|------4-x-x-6-x-x-4-x-x-3-x-x-4----------4-x-x-6-x-x-4-x-x-3-x-x-4---------|
D|------4-x-x-6-x-x-4-x-x-4-x-x-4----------4-x-x-6-x-x-4-x-x-4-x-x-4---------| 
A|---------------------------------------------------------------------------|        
E|---------------------------------------------------------------------------|       
  Guitar 2                                                                            
e|---------------------------------------------------------------------------|        
B|---------------------------------------------------------------------------|       
G|---------------------------------------------------------------------------| 
D|---------------------------------------------------------------------------|
A|--6-6--------------------------------6-6----------------------------------6|
E|--4-4--------------------------------4-4----------------------------------4|



|*b half bend (1 1/2 step aka *b3 is a bend to make 4's sound) 
| b  full bend (2 1/2 steps aka b14 is a bend to make 16's sound) 
| /  slide up
| \  slide down
| h  hammer-on
| p  pull-off
| ~  vibrato
| +  harmonic or tap
| x  Mute note
===============================================================================





Comments


Popular Scary Kids Scaring Kids tabs & chords
Watch Me Bleed 1 Chords
De-Railed Tabs
De-Railed 1 Tabs
Degenerates Tabs
Degenerates Intro Tabs
Drowning You In Fear Tabs
Snake Devil 1 Tabs
What's Up Now Tabs
Whats Up Now Intro 1 Tabs
World As We Know It Intro Tabs


Song lyrics



↑ Back to top | Tablatures and chords are parodies/interpretations of the original songs. You may use it for private study, scholarship, research or language learning purposes only
© 2014 AZChords.com Contact us | Privacy policy | DMCA | Add/correct tabs | Request tabs | Top 50 tabs