» » »

Star Crossed Tabs (ver.1)

Artists:  A B C D E F G H I J K L M N O P Q R S T U V W X Y Z # 

Star Crossed Tabs (ver.1)

Scary Kids Scaring Kids
Rating:
0/5 (0 votes)

Hard to play? Try these video lessons and learn fast.
                This isn't perfect but this is what i got enjoy, rate, and comment please :P
intro:

Part 1:
e[-------------------------------------------------------------------------]
B[-------0-----0-------0-------0------------------------------4------------]
G[------------------------------------8-------8---------8----3-3-----------]
D[---6------6------6-------6------9-------9--------9--------4---4----------]
A[-----6------6------6-------6--7---7---7---7---7-----7----5---------------]
E[-4------6------7-------9-------------------------------------------------]

Part 2:
e[-------------------------------------------------------------------------]
B[-------0-----0-------0-------0-------------------------------------------]
G[------------------------------------8-------8---------8------------------]
D[---6------6------6-------6------9-------9--------9------[bass line]------]
A[-----6------6------6-------6--7---7---7---7---7-----7--------------------]
E[-4------6------7-------9-------------------------------------------------]

[verse 1 and 2 are intro part 1 played as many times in the song]

Chorus:                                                                   x2
e[-------------------------------------------------------------------------]
B[---------------------6~666--4~444----------------------------------------]
G[---------------------6~666--4~444----------------------------------------]
D[-22222222--44444444--4~444--2~222--8~888--6~666--------------------------]
A[-22222222--44444444----------------8~888--6~666--------------------------]
E[-22222222--44444444----------------8~888--6~666--------------------------]

Then verse 2 and Chorus again

Then...                                                                   x3
e[-------------------------------------------------------------------------]
B[-----------------------66666666--44444444--------------------------------]
G[-----------------------66666666--44444444--------------------------------]
D[-22222222--44444444----44444444--22222222--88888888--66666666------------]
A[-22222222--44444444------------------------88888888--66666666------------]
E[-22222222--44444444------------------------88888888--66666666------------]

e[------------------------------------------------------------------------]
B[-------0-----0-------0-------0------------------------------------------]
G[-------------------------------8~---------------------------------------]
D[---6------6------6-------6-----9~-888888888888888-8---------------------]
A[-----6------6------6-------6---7~-888888888888888-8---------------------]
E[-4------6------7-------9----------888888888888888-8---------------------]
                                   ...............
Then Chorus twice and ends with...


Outro:
e[-------------------------------------------------------------------------]
B[-0~----------0~-------------0~-------------------------------------------]
G[-x-----------x--------------x--------------------------------------------]
D[-6~----------6~-------------6~-------------------------------------------]
A[-6~----------6~-------------6~-------------------------------------------]
E[-4~----------6~-------------7~-------------------------------------------]
            
Hard to play? Try these video lessons and learn fast. | Correct




comments powered by Disqus
↑ Back to top | Tablatures and chords are parodies/interpretations of the original songs. You may use it for private study, scholarship, research or language learning purposes only