» » »

Scary Kids Scaring Kids, Snake Devil Bass tabs (ver.1)

Artists:  A B C D E F G H I J K L M N O P Q R S T U V W X Y Z # 

Snake Devil Bass tabs (ver.1)

Scary Kids Scaring Kids Tabs
 Rating:
4.3/5 (6 votes)
Snake Devil lessons Tabs too difficult? Try these video lessons and learn fast
1
                ----------------------------------------------------------------------------
----------------------------------------------------------------------------


Tuning: 1/2 step
Eb Ab Db Gb 

I've been trying to figure this out for forever!! I finally figured it out. I figured 
write the bass part since I can't figure out the solo or the little break after the intro 
guitar.

Edited 3/13/08: I figured out I missed a couple of notes in the intro.

Intro:
G|------------------------------|
D|------------------------------|
A|------------------------------|
E|-55--5-55--55-----55----------|

G|-----------------------------------------|
D|-----------------------------------------|
A|-003050302030030503020300305030203-------|
E|-----------------------------------------|


Verse:
G|-------------------------------------------------------------------|
D|-------------------------------------------------------------------| X3
A|-00-0-0-0----3---00-0-0-0--65030---00-0-0-0---3-----------55555555-|
E|----------035-53----------------3----------035-53-33333333---------|


Pre-Chorus:
G|----------------------|
D|----------------------|
A|----------------------|
E|1111111133333333------|


Chorus:
G|----------------------------------------------------|
D|----------------------------------------------------| X2
A|----------------333333333333------------------------|
E|5555555555555555------------1111111111100000000000--|


Verse:
G|-------------------------------------------------------------------|
D|-------------------------------------------------------------------| X2
A|-00-0-0-0----3---00-0-0-0--65030---00-0-0-0---3-----------55555555-|
E|----------035-53----------------3----------035-53-33333333---------|


Pre-Chorus:
G|-----------------------------------------------------|
D|-----------------------------------------------------|
A|------------------------3333-------------------------|
E|111111113333333355555555----5555111111113333333------|


Guitar Solo:
G|----------------------------------------|
D|----------------------------------------| X2
A|----------------------------------33----|
E|-5x5x5x33-5x5x5x33-1x1x1x33-5x5x5x--55--|

G|-----------------------------------------------------|
D|-----------------------------------------------------|
A|------------------------3333-------------------------|
E|111111113333333355555555----5555111111113333333------|


Chorus:
G|----------------------------------------------------|
D|----------------------------------------------------| X2
A|----------------333333333333------------------------|
E|5555555555555555------------1111111111100000000000--|

G|-----------------------------------------------------------|
D|-----------------------------------------------------------|
A|-----------------------------------------------------------|
E|11111111333333335555555533333311111111333333355555555------|

Outro:
G|------------------------------|
D|------------------------------|
A|------------------------------|
E|-55--5-55--55-----55----------| Play until the song fades out


| /  slide up
| \  slide down
| h  hammer-on
| p  pull-off
| ~  vibrato
| +  harmonic
| x  Mute note
============================================================================
            
Submit corrections

comments powered by Disqus
↑ Back to top | Scary Kids Scaring Kids Bass for Snake Devil. Lyrics for acoustic guitar and electric guitar. 1 Tablatures and chords are parodies/interpretations of the original songs. You may use it for private study, scholarship, research or language learning purposes only