» » »

Suck My Kiss Tabs (ver.1)

Artists:  A B C D E F G H I J K L M N O P Q R S T U V W X Y Z # 

Suck My Kiss Tabs (ver.1)

Red Hot Chili Peppers
Rating:
0/5 (0 votes)

Hard to play? Try these video lessons and learn fast.
                Intro:

e:|------3-----|------3-----|------3-----|---------------------------------|
B:|------3-----|------3-----|------3-----|---------------------------------|
G:|------4-----|------4-----|------4-----|--------------------------7h9-9-9|
D:|------5-----|------5-----|------5-----|---------3-3-3-3-5h7-7-7---------|
A:|------5-----|------5-----|------5-----|-3h5-5-5-------------------------|
E:|-1-3--3--1-3|-1-3--3--1-3|-1-3--3--1-3|---------------------------------|

e:|------3-----|------3-----|------3-----|---------------------------------|
B:|------3-----|------3-----|------3-----|---------------------------------|
G:|------4-----|------4-----|------4-----|--------------------------7h9-9-9|
D:|------5-----|------5-----|------5-----|---------3-3-3-3-5h7-7-7---------|
A:|------5-----|------5-----|------5-----|-3h5-5-5-------------------------|
E:|-1-3--3--1-3|-1-3--3--1-3|-1-3--3--1-3|---------------------------------|


After the Intro, it goes into this....


e:|-------------|-----------------|-------------|-----------------|
B:|-------------|-----------------|-------------|-----------------|
G:|-------------|-----------------|-------------|-----------------|
D:|-------------|-----------------|-------------|-----------------|
A:|-------------|-------------1h3-|-------------|-------------1h3-|
E:|-1-3-3--1-3-3|-1-3-3--1-3-3---1|-1-3-3--1-3-3|-1-3-3--1-3-3---1|


Then when "Aw, baby, think you can..." starts in, play this....

                 A7
e:|---4---|---4---5-|-6\---|------|---4---|---4---5-|-6\---|---6----|
B:|---4---|---4---5-|-6\---|------|---4---|---4---5-|-6\---|---6----|
G:|-------|---------|-7\---|------|-------|---------|-7\---|---7----|
D:|-3-----|-3---7---|-8\---|------|-3-----|-3---7---|-8\---|---8----|
A:|-3-----|-3---7---|-8\---|------|-3-----|-3---7---|-8\---|---8----|
E:|-------|---------|-6\---|------|-------|---------|-6\---|---6----|

Notice the 4th measure is blank.  Be sure to count "1,2,3,4" because 
only the bass plays during that part.  Also see the bottom of this page
for the correct chord formation on A7to make it easier.


Chorus ("Hit me you can't hurt me..."):

    Em     G7     A7           Em     G7     A7
e:|------3---3--|-5-5--------|------3---3--|-5-5---------------|
B:|------3---3--|-5-5--------|------3---3--|-5-5----0----------|
G:|--------4---4|-6-6--------|--------4---4|-6-6----x----------|
D:|-x-x----5---5|-7-7--------|-x-x----5---5|-7-7----9b(9)-10---|
A:|-7-7---------|-7-7--------|-7-7---------|-7-7----------10---|
E:|-0-0---------|-5-5--------|-0-0---------|-5-5---------------|

    Em     G7     A7           Em     G7     A7
e:|------3---3--|-5-5--------|------3---3--|-5-5--------|
B:|------3---3--|-5-5--------|------3---3--|-5-5--------|
G:|--------4---4|-6-6--------|--------4---4|-6-6--------|
D:|-x-x----5---5|-7-7--------|-x-x----5---5|-7-7--------|
A:|-7-7---------|-7-7--------|-7-7---------|-7-7--------|
E:|-0-0---------|-5-5--------|-0-0---------|-5-5--------|


Then it goes through all three segments again before the solo.  The only
difference is an added last chord in the chorus ( I don't know the name
of it so we'll call it the U Chord!).  I'll pick up at the last four 
measures shown...


    Em     G7     A7           Em     G7     A7 >>> U Chord <<<<  
e:|------3---3--|-5-5--------|------3---3--|-5-5-------6------|
B:|------3---3--|-5-5--------|------3---3--|-5-5-------6------|
G:|--------4---4|-6-6--------|--------4---4|-6-6-------7------|
D:|-x-x----5---5|-7-7--------|-x-x----5---5|-7-7-------8------|
A:|-7-7---------|-7-7--------|-7-7---------|-7-7-------8------|
E:|-0-0---------|-5-5--------|-0-0---------|-5-5-------6------|


The main reason why I made out this tab was for the solo because I couldn't
find a tab for it anywhere on the internet so I figured it out myself
Here it is...


e:|-6h8p6--------6h8p6--------6h8p6----|-6h8p6--------6h8p6--------6h8p6----|
B:|-6-----8-8----6-----8-8----6-----8-8|-6-----8-8----6-----8-8----6-----8-8|
G:|-------0-0----------0-0----------0-0|-------0-0----------0-0----------0-0|
D:|------------------------------------|------------------------------------|
A:|------------------------------------|------------------------------------|
E:|------------------------------------|------------------------------------|

e:|-6h8p6--------6h8p6--------6h8p6----|------------------------------------|
B:|-6-----8-8----6-----8-8----6-----8-8|-6h8-8-8-6h8-8-8--6h8-8-8-6h8-8-8---|
G:|-------0-0----------0-0----------0-0|-0---0---0---0----0---0---0---0-----|
D:|------------------------------------|------------------0---0---0---0-----|
A:|------------------------------------|>>gradually increase intensity here>|
E:|------------------------------------|------------------------------------|

e:|----10-10----10-10--10-12-10-10-10--|-------10-10--10-10---10-12-10-10-10|
B:|----11-11----11-11--11-11-11-11-11--|-------11-11--11-11---11-11-11-11-11|
G:|----0-------------------------------|-------0----------------------------|
D:|------------------------------------|------------------------------------|
A:|------------------------------------|------------------------------------|
E:|------------------------------------|------------------------------------|

e:|----10-10----10-10--10-12-10-10-13--|-13"""""""15"""""""17"""""""18\-----|
B:|----11-11----11-11--11-11-11-11-13--|-13"""""""17"""""""19"""""""18\-----|
G:|----0-------------------------------|------------------------------------|
D:|------------------------------------|------------------------------------|
A:|------------------------------------|------------------------------------|
E:|------------------------------------|------------------------------------|


Well that's it, after the solo, it just repeats everything a little.  Just 
follow the CD and it's a breeze.  If you can't get the solo at first, keep 
at it and find somewhere to put your fingers down beforehand instead of 
looking at all the fret numbers individually.  Hope this was helpful....

Frusciante14


Chord Index:

    Em   G7   A7   U Chord
e:|--0----3----5------6---|
B:|--0----3----5------6---|
G:|--0----4----6------7---|
D:|--2----5----7------8---|
A:|--2----5----7------8---|
E:|--0----3----5------6---|

Key:
    h = hammer on
    p = pull off
    / = slide up
    \ = slide down
    " = hit quickly and repeatedly
    b = bend
    x = play string but mute it
   ( )= let ring
            
Hard to play? Try these video lessons and learn fast. | Correct




comments powered by Disqus
↑ Back to top | Tablatures and chords are parodies/interpretations of the original songs. You may use it for private study, scholarship, research or language learning purposes only