» » »

Suck My Kiss Bass tabs (ver.1)

Artists:  A B C D E F G H I J K L M N O P Q R S T U V W X Y Z # 

Suck My Kiss Bass tabs (ver.1)

Red Hot Chili Peppers
Rating:
0/5 (0 votes)

Tabs too difficult? Try these video lessons and learn fast.
                
  Intro/Solo
G-------------------------------|----------|--------------------------------7h99---|
D-------------------------------|---x3----|--------------3333----5h777-------------| A--------------1--------------- |----------|----3h555------------------------------|
E --1-----3---------1----3---- |----------|----------------------------------------|
          Chorus
G----------------------|-------|-------------------------
D----------------------|--x3--|-------------------------
A----------------------|-------|--------------1h3p1---
E----1---3---3---3---|-- ----|----1----3--------------
             m
   Interlude
G-------------------------------|---------
D---------5------5--------------|--x3----
A------------5------5-----------|---------
E-----0--------------------55---|---------
      Verse
G-----------------
D-----------------
A-----------------
E---1----2--------
            
Tabs too difficult? Try these video lessons and learn fast.


comments powered by Disqus
↑ Back to top | Tablatures and chords are parodies/interpretations of the original songs. You may use it for private study, scholarship, research or language learning purposes only