» » »

Red Hot Chili Peppers, Give It Away Tabs (ver.6)

Artists:  A B C D E F G H I J K L M N O P Q R S T U V W X Y Z # 

Give It Away Tabs (ver.6)

Red Hot Chili Peppers Tabs
 Rating:
4/5 (4 votes)
Give It Away lessons Tabs too difficult? Try these video lessons and learn fast
1
                (Live)
e||----------8--------|-11------11----11-----11-----11-----11------|
B||---------b7--------|--------------------------------------------|
G||-------------------|---12p11--12p11--12p11--12p11--12p11--12p11-|
D||-7---7-7-----------|--------------------------------------------|
A||-0---0-0-----------|--------------------------------------------|
E||-------------------|--------------------------------------------|

e||----------8--------|-17-17-17-17------17---17---17--17--|
B||---------b7--------|------------------------------------|
G||-------------------|-14-14-14-14------14---14---14--14--|
D||-7---7-7-----------|------------------------------------|
A||-0---0-0-----------|------------------------------------|
E||-------------------|------------------------------------|

What I’ve got you’ve got to give it to your mamma
What I’ve got you’ve got to give it to your pappa
e||--------------------|--------------------|
B||--------------------|--------------------|
G||----7---6---5-------|--------7---8---9---|
D||-7-------------5--5-|-7------------------|
A||--------------------|--------------------|
E||--------------------|--------------------|
What I’ve got you’ve got to give it to your daughter
You do a little dance and then you drink a little water
e||--------------------|--------------------|
B||--------------------|--------------------|
G||----7---6---5-------|-----------8--7-----|
D||-7-------------5--5-|-7------7--------5--|
A||--------------------|--------------------|
E||--------------------|--------------------|

What I’ve got you’ve got to get it put it in you
What I’ve got you’ve got to get it put it in you
e||--------------------|--------------------|
B||--------------------|--------------------|
G||----7---6---5-------|--------7---8---9---|
D||-7-------------5--5-|-7------------------|
A||--------------------|--------------------|
E||--------------------|--------------------|
What I’ve got you’ve got to get it put it in you
Reeling with the feeling don’t stop continue
e||--------------------|--------------------|
B||--------------------|--------------------|
G||----7---6---5-------|----------7---5-----|
D||-7-------------5--5-|-7--7--7--------5---|
A||--------------------|--------------------|
E||--------------------|--------------------|

Realize I don’t want to be a miser
Confide wisely you’ll be the wiser 
e||--------------------|--------------------|
B||--------------------|--------------------|
G||----7---6---5-------|--------7---8---9---|
D||-7-------------5--5-|-7------------------|
A||--------------------|--------------------|
E||--------------------|--------------------|
Young blood is the lovin’ upriser
How come everybody wanna keep it like the kaiser
e||--------------------|--------------------|
B||--------------------|--------------------|
G||----7---6---5-------|----------7---5-----|
D||-7-------------5--5-|-7--7--7--------5---|
A||--------------------|--------------------|
E||--------------------|--------------------|

Give it away give it away give it away now
Give it away give it away give it away now
e||---------------------|---------------------|
B||---------------------|---------------------|
G||---------------------|---------------------|
D||-7-7-7-7-7-7-7-7-7-7-|-7-7-7-7-7-7-7-7-7-7-|
A||-0-0-0-0-0-0-0-0-0-0-|-0-0-0-0-0-0-0-0-0-0-|
E||---------------------|---------------------|
Give it away give it away give it away now
I can’t tell iff I’m a king pin or a pauper
e||---------------------|--8-8-8-8-8-8-8-8-8-8-|
B||---------------------|-b7~~~~~~~~~~~~~~~~~~-|
G||---------------------|----------------------|
D||-7-7-7-7-7-7-7-7-7-7-|----------------------|
A||-0-0-0-0-0-0-0-0-0-0-|----------------------|
E||---------------------|----------------------|

Greedy little people in a sea of distress
Keep your more to receive your less 
e||--------------------|--------------------|
B||--------------------|--------------------|
G||----7---b7-----5----|--------7---8---9---|
D||-7----------------5-|-7----7-------------|
A||--------------------|--------------------|
E||--------------------|--------------------|
Unimpressed by material excess
Love is free love me say hell yes
e||--------------------|---------------------|
B||--------------------|---------------------|
G||----7---b7-----5----|------5h7p7-5h7p5--5-|
D||-7----------------5-|-7--7------7-----7---|
A||--------------------|---------------------|
E||--------------------|---------------------|

I’m a low brow but I rock a little know how
No time for the piggies or the hoosegow
e||--------------------|-------------------|
B||--------------------|-----------8-------|
G||----7---b7-----5----|--------b7~~~~7p5--|
D||-7----------------5-|-7----7------------|
A||--------------------|-------------------|
E||--------------------|-------------------|
Get smart get down with the pow wow
Never been a better time than right now
e||--------------------|---------------------|
B||--------------------|---------------------|
G||----7---b7-----5----|------5h7p7----------|
D||-7----------------5-|-7--7-------5---5--5-|
A||--------------------|---------------------|
E||--------------------|---------------------|

Bob marley poet and a prophet
Bob marley taught how to off it
e||--------------------|--------------------|
B||--------------------|--------------------|
G||----7---b7-----5----|--------7---8---9---|
D||-7----------------5-|-7----7-------------|
A||--------------------|--------------------|
E||--------------------|--------------------|
Bob marley walkin’ like he talk it
Goodness me can’t you see I’m gonna cough it
e||----7--7------------|--------------------|
B||----7--7------------|--------------------|
G||-----------5--------|--------7---5-------|
D||-7------------5---5-|-7----7---------5---|
A||--------------------|--------------------|
E||--------------------|--------------------|

Give it away give it away give it away now
Give it away give it away give it away now
e||---------------------|---------------------|
B||---------------------|---------------------|
G||---------------------|---------------------|
D||-7-7-7-7-7-7-7-7-7-7-|-7-7-7-7-7-7-7-7-7-7-|
A||-0-0-0-0-0-0-0-0-0-0-|-0-0-0-0-0-0-0-0-0-0-|
E||---------------------|---------------------|
Give it away give it away give it away now Ooh... ooh yeah
e||---------------------|-12-12-12-12-12-12-12-12-12-|
B||---------------------|----------------------------|
G||---------------------|-12-12-12-12-12-12-12-12-21-|
D||-7-7-7-7-7-7-7-7-7-7-|----------------------------|
A||-0-0-0-0-0-0-0-0-0-0-|----------------------------|
E||---------------------|----------------------------|

N.C.
Give it away give it away give it away now
Give it away give it away give it away now
Give it away give it away give it away now
I can’t tell iff I’m a king pin or a pauper
 
e||-12—-10--12--------|------------------|
B||-------------12-12-|-10--12--12-------|
G||-------------------|------------9-9-9-|
D||-------------------|------------------|
A||-------------------|------------------|
E||-------------------|------------------|

e||------------------|---------------------|
B||-8--7--8----------|---------------------|
G||----------7-7-9p7-|---------------------|
D||------------------|-9-----7h9-9-7h9-9-9-|
A||------------------|---------------------|
E||------------------|---------------------|

e||-12—-10--12--------|------------------|
B||-------------12-12-|-10--12--12-------|
G||-------------------|------------9-9-9-|
D||-------------------|------------------|
A||-------------------|------------------|
E||-------------------|------------------|

e||-------------------|----------------------|
B||-8--7--8-----------|--------------0-0-0-0-|
G||----------7-7-9h11-|-9--------9-9-9-9-9-9-|
D||-------------------|----------------------|
A||-------------------|----------------------|
E||-------------------|----------------------|


Look at me swimmin’ in my ability
Dancin’ down on life with agility
e||--------------------|-------------------|
B||--------------------|-------------------|
G||----7---b7-----5----|--------b7---5-----|
D||-7----------------5-|-7----7---------5--|
A||--------------------|-------------------|
E||--------------------|-------------------|
Come and drink it up from my fertility
Blessed with a bucket of lucky mobility
e||--------------------|--------7-7p5------|
B||--------------------|--------7-7p5------|
G||----7---b7-----5----|-------------------|
D||-7----------------5-|-7----7------------|
A||--------------------|-------------------|
E||--------------------|-------------------|

My mom I love her ’cause she love me
Long gone are the times when she scrub me
e||--------------------|--------------------|
B||--------------------|--------------------|
G||----7---b7-----5----|--------------------|
D||-7----------------5-|-7--7--7--5-5-5-5-7-|
A||--------------------|--------------------|
E||--------------------|--------------------|
Feelin’ good my brother gonna hug me
Drink my juice lone chug-a-lug me
e||--------------------|------------------------|
B||--------------------|------------------------|
G||----7---b7-----5----|------------------------|
D||-7----------------5-|-7----------------------|
A||--------------------|---------------5--------|
E||--------------------|-----------------8-(b)3-|

There’s a river born to be a giver
Keep you warm won’t let you shiver
e||--------------------|--------7-7p5------|
B||--------------------|--------7-7p5------|
G||----7---b7-----5----|-------------------|
D||-7----------------5-|-7----7------------|
A||--------------------|-------------------|
E||--------------------|-------------------|
His heart is never gonna wither
Come on everybody time to deliver
e||--------------------|---------------------|
B||--------------------|---------------------|
G||----7---b7-----5----|------5h7p7----------|
D||-7----------------5-|-7--7-------5---5--5-|
A||--------------------|---------------------|
E||--------------------|---------------------|

N.C.
Give it away give it away give it away now
Give it away give it away give it away now
Give it away give it away give it away now
Ow yeah 

e||-12—--12h15p12-12h15p12-|-12h15p12-12h15p12h15p12h15p12h15-|
B||------------------------|----------------------------------|
G||------------------------|----------------------------------|
D||------------------------|----------------------------------|
A||------------------------|----------------------------------|
E||------------------------|----------------------------------|

e||-15p12-17p12-15p12-17p12-15p12-17p12-|----------------------------------------------------|
B||-------------------------------------|-12-12h15p12-112h12p10-8h10p8-5h8p5-----------------|
G||-------------------------------------|------------------------------------7h9p7-5h7p5-----|
D||-------------------------------------|------------------------------------------------7---|
A||-------------------------------------|----------------------------------------------------|
E||-------------------------------------|----------------------------------------------------|


What I’ve got you’ve got to give it to your mamma
What I’ve got you’ve got to give it to your pappa
e||--------------------|--------------------|
B||--------------------|--------------------|
G||----7---b7-----5----|--------7---8---b8--|
D||-7----------------5-|-7----7-------------|
A||--------------------|--------------------|
E||--------------------|--------------------|
What I’ve got you’ve got to give it to your daughter
You do a little dance and then you drink a little water
e||--------------------|------------8-8-7---|
B||--------------------|--------5h8-8-8-7---|
G||----7---b7-----5----|--------------------|
D||-7----------------5-|-7----7-------------|
A||--------------------|--------------------|
E||--------------------|--------------------|

What I’ve got you’ve got to get it put it in you
What I’ve got you’ve got to get it put it in you
e||--------------------|-------------------|
B||--------------------|-----------8-------|
G||----7---b7-----5----|--------b7~~~~7p5--|
D||-7----------------5-|-7----7------------|
A||--------------------|-------------------|
E||--------------------|-------------------|
What I’ve got you’ve got to get it put it in you
Reeling with the feeling don’t stop continue
e||--------------------|-7-5----5-5---3-3-3-|
B||--------------------|-7-5----5-5---3-3-3-|
G||----7---b7-----5----|--------------------|
D||-7----------------5-|--------------------|
A||--------------------|--------------------|
E||--------------------|--------------------|

Realize I don’t want to be a miser
Confide wisely you’ll be the wiser
e||--------------------|--------------------|
B||--------------------|--------------------|
G||----7---b7-----5----|--------7---8---9---|
D||-7----------------5-|-7----7-------------|
A||--------------------|--------------------|
E||--------------------|--------------------|
Young blood is the lovin’ upriser
How come everybody wanna keep it like the kaiser
e||--------------------|--------------------|
B||--------------------|--------------------|
G||----7---6---5-------|----------7---5-----|
D||-7-------------5--5-|-7--7--7--------5---|
A||--------------------|--------------------|
E||--------------------|--------------------|

Give it away give it away give it away now
Give it away give it away give it away now
e||-8-8-8-7-5-5-5-5-5-|-5-5-5-5-12-12-12-12-|
B||-8-8-8-7-5-5-5-5-5-|-5-5-5-5-12-12-12-12-|
G||-------------------|---------------------|
D||-------------------|---------------------|
A||-------------------|---------------------|
E||-------------------|---------------------|
Give it away give it away give it away now
Give it away give it away give it away now
e||-8-8-8-7-5-5-5-5-5-|-5-5-5-5-12-12-12-12-|
B||-8-8-8-7-5-5-5-5-5-|-5-5-5-5-12-12-12-12-|
G||-------------------|---------------------|
D||-------------------|---------------------|
A||-------------------|---------------------|
E||-------------------|---------------------|

Just Give it away 
e||-8-8-8-7-5-5-5-5-5-|-5-5-5-5-12-12-12-12-|
B||-8-8-8-7-5-5-5-5-5-|-5-5-5-5-12-12-12-12-|
G||-------------------|---------------------|
D||-------------------|---------------------|
A||-------------------|---------------------|
E||-------------------|---------------------|
Just Give it away               Just give it
e||-8-8-8-7-5-5-5-5-5-|-5-5-5-5-----|
B||-8-8-8-7-5-5-5-5-5-|-5-5-5-5-----|
G||-------------------|-------------|
D||-------------------|-------------|
A||-------------------|-------------|
E||-------------------|-------------|
away
e||-5---5-x-5--5--5-|-5---5-x-5--5--5-|
B||-5---5-x-5--5--5-|-5---5-x-5--5--5-|
G||-5---5-x-5--5--5-|-5---5-x-5--5--5-|
D||-----------------|-----------------|
A||-----------------|-----------------|
E||-----------------|-----------------|
Just Give it away
e||-5---5-x-5--5--5-|-5---5-x-5--5--5-|
B||-5---5-x-5--5--5-|-5---5-x-5--5--5-|
G||-5---5-x-5--5--5-|-5---5-x-5—b7--5-|
D||-----------------|-----------------|
A||-----------------|-----------------|
E||-----------------|-----------------|
Just Give it away
e||-5---5-x-5--5--5-|-5---5-x-5--5--5-|
B||-5---5-x-5--5--5-|-5---5-x-5--5--5-|
G||-5---5-x-5--5--5-|-5---5-x-5--5--5-|
D||-----------------|-----------------|
A||-----------------|-----------------|
E||-----------------|-----------------|
You’ve got to Give it away
e||-5---5-x-5--5--5-|-5---5-x-5—b7-b7-|
B||-5---5-x-5--5--5-|-5---5-x-5-------|
G||-5---5-x-5--5--5-|-5---5-x-5-------|
D||-----------------|-----------------|
A||-----------------|-----------------|
E||-----------------|-----------------|



e||--------------------|--------------------|
B||--------------------|--------------------|
G||--------------------|--------------------|
D||--------------------|--------------------|7x
A||----------5--5--4--3|--------------------|
E||-5--5---------------|--------------------|

e||--------------------|--------------------|
B||--------------------|--------------------|
G||--------------------|--------------------|
D||--------------------|--------------------|
A||----------5--5--4--3|--------------5~~/7~|
E||-5--5---------------|--------------------|

e||--------------------|--------------------|
B||--------------------|--------------------|
G||--------------------|--------------------|
D||--------------------|--------------------|
A||--------------------|--------------------|
E||-5------------------|--------------------|
            
Submit corrections

comments powered by Disqus
↑ Back to top | Red Hot Chili Peppers Tabs for Give It Away. Lyrics for acoustic guitar and electric guitar. 1 Tablatures and chords are parodies/interpretations of the original songs. You may use it for private study, scholarship, research or language learning purposes only