» » »

Give It Away Tabs (ver.3)

Artists:  A B C D E F G H I J K L M N O P Q R S T U V W X Y Z # 

Give It Away Tabs (ver.3)

Red Hot Chili Peppers
Rating:
0/5 (0 votes)

Hard to play? Try these video lessons and learn fast.
                Intro    0:00-0:13 
Riff one 
e||-------------6b-(7)b-------10-----10-----10-----10 -| 
b||-------------7---------9p8----9p8----9p8----9p8-----| 
g||----------------------------------------------------| 
D||--7-7-7-7-------------------------------------------| 
A||--0-0-0-0-------------------------------------------| 
E||----------------------------------------------------| 

E||---------------6b-(7)b------------|| 
B||---------------7--------5-5-5-5---|| 
G||------------------------5-5-5-5---|| 
D||--7-7-7-7---------------5-5-5-5---|| 
A||--0-0-0-0-------------------------|| 
E||----------------------------------|| 


VERSE   0:13-0:43 
Riff two 
e||-----------------------------------| 
b||-----------------------------------| 
g||----------7-6-5-----------7-8-9----| 
D||--7-****--------**5-7-****------*--| 
A||--0--------------------------------| 
E||-----------------------------------| 

1.What I've got you've got to give it to your mamma. 
What I've got you've got to give it to your pappa 

E||-------------------------------|end of "Riff two". 
b||------------------------------:|repeat "Riff two" x3 times 
g||-----*-7-6-5-----------7b-5----| 
d||7-***---------**5-7--7------5--| 
a||0-----------------0-----------:| 
e||-------------------------------| 

What I've got you've got to give it to your daughter 
You do a little dance and drink a little water. 

Additional lyrics 

2. 
What I've got you got to get it put it in you 
What I've got you got to get it put it in you 
What I've got you got to get it put it in you 
Reeling with the feeling don't stop continue 
3. 
Realize I don't want to be a miser 
Confide with sly you'll be the miser 
Young blood is the lovin' upriser 
How come everybody wanna keep it like the kaiser 

Chorus   0:43-0:53 

E||-----------------------||There is also a 2nd guitar, however I  
B||-----------------------|| haven't figured out that one. 
G||-----------------------|| 
D||--7--------------------|| 
A||--0---many times-------|| 
E||-----------------------|| 


Give it away, give it away, give it away, give it away now   x3     
I can't tell if I'm king pin or a poper 




Vers      0:53-1:25 
Repeat Riff two 3 times 

Lyric 

Greedy little people in a sea of distress 
keep ypur more to recieve your less 
unimpressed by material excess 
Love is free love me say hell yes 

I'm a low brow but i Rock a little know how 
No time for thepiggies or the hoosegow 
get smart get down with the pow wow 
Never been a better time than right now. 

Bob marley poet and a prophet 
Bob marley taught me how to off it 
Bob Marley walkin' like he talk it 
Goodness me can't you see I'm gonna cough it 
  



Chorus    1:25-1:46 

1St guitar solo 1:46-2:06 played backwareds 

E||12----12--10------10----------------------------------| 
B||--------------14--------12--14--10---11-12-11---------| 
G||----------------------------------------------12------| 
D||------------------------------------------------------| 
A||------------------------------------------------------| 
E||------------------------------------------------------| 

E||--------------------------------------------------|| 
B||-11-12-11-----------------------------------------|| 
G||----------12---12-----------12-11-----------------|| 
D||------------------12--14-------------12-14--------|| 
A||--------------------------------------------------|| 
E||--------------------------------------------------|| 

This part is played on a tape and recorded backwards into the cd. 
So what ever you do, it won't sound like the album version, but you may try to  
Listen to a live version and adopt the live-sound instead.:) good luck! 
I garanty that this solo is absolutly perfect tabbed according to the record. 





E||--12slide and fast-picking down to 0----------|| 
B||----------------------------------------------|| 
G||----------------------------------------------|| 
D||----------------------------------------------|| 
A||----------------------------------------------|| 
E||----------------------------------------------|| 

Vers    2:06-2:38 
e||-----------------------------------| 
b||-----------------------------------| 
g||----------7-6-5-----------7-8-9----| 
D||--7-****--------**5-7-****------*--| 
A||--0--------------------------------| 
E||-----------------------------------| 

E||-------------------------------|end of "Riff two". 
b||------------------------------:|repeat "Riff two" x3 times 
g||-----*-7-6-5-----------7b-5----| 
d||7-***---------**5-7--7------5--| 
a||0-----------------0-----------:| 
e||-------------------------------| 

Chorus 
There are no guitars playing during this chorus. 


2nd Guitar Solo 2:49-2:59 

E||--------------------------------------------------------------| 
B||-16h17p16h17p16h17p16h17--------------------------------------| 
G||-----------------------------14h15p14h15---16h17p16h17p16h17--| 
D||------------------------12h14---------------------------------| 
A||--------------------------------------------------------------| 
E||--------------------------------------------------------------| 

E||------------------------------------------|| 
B||------------------------------------------|| 
G||15b-15b-16B--15slide12----12--------------|| 
D||----------------------------12-14---------|| 
A||----------------------------------12------|| 
E||------------------------------------------|| 

I'm not that sure about the second solo, but atleast I gave it a try. 
The reputations of hammering and pulling is not ment as correct nummbers, but only as an indication. This one is also recorded backwards. 

Vers 2:59-3:31 



Riff two 
e||-----------------------------------| 
b||-----------------------------------| 
g||----------7-6-5-----------7-8-9----| 
D||--7-****--------**5-7-****------*--| 
A||--0--------------------------------| 
E||-----------------------------------| 

1.What I've got you've got to give it to your mamma. 
What I've got you've got to give it to your pappa 

E||-------------------------------| 
b||------------------------------:|repeat "Riff two" x3 times 
g||-----*-7-6-5-----------7b-5----| 
d||7-***---------**5-7--7------5--| 
a||0-----------------0-----------:| 
e||-------------------------------| 

What I've got you've got to give it to your daughter 
You do a little dance and drink a little water. 


Additional lyrics 

2. 
What I've got you got to get it put it in you 
What I've got you got to get it put it in you 
What I've got you got to get it put it in you 
Reeling with the feeling don't stop continue 
3. 
Realize I don't want to be a miser 
Confide with sly you'll be the miser 
Young blood is the lovin' upriser 
How come everybody wanna keep it like the kaiser 

Chorus 3:31-4:42 




E||---------------|| 
B||---------------|| 
G||-----7-6-5-----|| 
D||-7-------------|| 
A||-0-------------||Repeat several times and the last ones with fuzz. 
E||---------------|| 

Give it away now!
            
Hard to play? Try these video lessons and learn fast. | Correct




comments powered by Disqus
↑ Back to top | Tablatures and chords are parodies/interpretations of the original songs. You may use it for private study, scholarship, research or language learning purposes only