» » »

Red Hot Chili Peppers, Give It Away Bass tabs (ver.2)

Artists:  A B C D E F G H I J K L M N O P Q R S T U V W X Y Z # 

Give It Away Bass tabs (ver.2)

Red Hot Chili Peppers Tabs
 Rating:
4/5 (4 votes)
Give It Away lessons Tabs too difficult? Try these video lessons and learn fast
                 This is just a simpler version than the other one

 Tuning: Standard (EADG)

 Intro(00:09)
 |----------------------------------|
 |----------------------------------|
 |----------------------------------|
 |-------5/17----5/15---------------|

 Verse(00:11)
 |--------------12---------------12/----------------|
 |o----------/14--------------/14------------------o|
 |o----0-------------3-3-0----------------0h3-0----o|    x6
 |--------------------------------------------------|

 Chorus(00:45)
 |-----------------------------|
 |-----------------------------|
 |-----------------------------| 
 |-----3/5-----3/5-----3/5-----|

 Verse(00:53)

 Chorus(1:27) Play nothing from(1:35 til 1:46)

 Solo 1(1:46)
 |-------------------------------|
 |o-----------------------------o|
 |o-------------10--------------o|     x6  
 |-----0---/12---------3-3-0-----|

 Solo End(2:04)
 |------------------------------------------|
 |------------------------------------------|
 |------------------------------------------|
 |-----10p0-9p0-7p0-6p0-5p0-4p0-3p0-2p0-----|

 Verse(2:06)

 Play nothing from(2:38 til 2:48)

 Solo 2(2:48)
 |------------------------------|
 |------------------------------|
 |-------------10---------------|     x3
 |-----0---/12--------3-3-0-----|

 Solo End(2:56)
 |------------------------------------------|
 |------------------------------------------|
 |------------------------------------------|
 |-----10p0-9p0-7p0-6p0-5p0-4p0-3p0-2p0-----|

 Verse(2:59)

 Outro(2:31)
 |--------------12---------------12/---||-------------|
 |o----------/14--------------/14------||-------------|
 |o----0-------------3-3-0-------------||---0h3-0-----|
 |-------------------------------------||-------------|

                                        Fill 1(3:50)
                                        |-----14--12--12---|
                                        |---14--14--14-----|
                                        |------------------|
                                        |------------------|

                                        Fill 2(4:01)
                                        |-------------------|
                                        |-------------------|
                                        |---0-12-0-10-0-9-0-|
                                        |-------------------|

                                        Fill 3(4:11)
                                        |----------------|
                                        |-------3-5-3----|
                                        |---3-5-------5--|
                                        |----------------|

                                        Fill 4(4:21)
                                        |----------------|
                                        |---------3------|
                                        |---0h3-5---5-3--|
                                        |----------------|

 End(4:31)
 |---------------------------------------------------------|
 |---------------------------------------------------------|
 |---0h1p0h2p0h3p0h4p0h5p0h6p0h7p0h8p0h9p0h10p0h11p0h12~---|
 |---------------------------------------------------------|

 Go easy as it was my first tab but i think iv got everything
 all corrections are welcome nd plz rate it
            
Submit corrections

comments powered by Disqus
↑ Back to top | Red Hot Chili Peppers Bass for Give It Away. Lyrics for acoustic guitar and electric guitar. Tablatures and chords are parodies/interpretations of the original songs. You may use it for private study, scholarship, research or language learning purposes only