» » »

Red Hot Chili Peppers, Give It Away Bass tabs (ver.3)

Artists:  A B C D E F G H I J K L M N O P Q R S T U V W X Y Z # 

Give It Away Bass tabs (ver.3)

Red Hot Chili Peppers Tabs
 Rating:
4/5 (4 votes)
Give It Away lessons Tabs too difficult? Try these video lessons and learn fast
                give it away 

key: 

/-up slide if bracket around the /or\ you have to strike second sliding note
\-down slide
x-muted note
po=pull off

INTRO

first three bars not played
                   
g|-dont-play---|-----------------------------------|
d|-------------|-----------------------------------|
a|-------------|-----------------------------------|
e|-------------|----6/19------5/17-----------------|
                    
VERSE  0:11-0:42
   
G|-----------12\-----------|-----------12\--------|
D|-------/14---------------|-------/14------------|
A|-0---X----------0-3--0-3-|-0---X----------X-0-3-|
E|-------------------------|----------------------|
   t   t   p p   t t t t t t   t   t  p  p    t t t  
G|-----------12\-------------|-----------12\--------|
D|-------/14-----------------|-------/14------------|     PLAY VERSE
A|-0---X---------X-0-3-X-0-3-|-0---X----------X-0-3-|       3 TIMES
E|---------------------------|----------------------|

CHORUS  0:42-0:53
   
g|--------|----------------------------------------|
d|--------|----------------------------------------|
a|-0------|----------------------------------------|
e|--------|--3/5-----------3/5----------3/5--------|

VERSE  0:53-1:25
  
G|-----------12\-----------|-----------12\--------|
D|-------/14---------------|-------/14------------|
A|-0---X----------0-3--0-3-|-0---X----------X-0-3-|
E|-------------------------|----------------------|
 
G|-----------12\-------------|-----------12\--------|
D|-------/14-----------------|-------/14------------|     PLAY VERSE
A|-0---X---------X-0-3-X-0-3-|-0---X----------X-0-3-|       3 TIMES
E|---------------------------|----------------------|

CHORUS    1:25-1:35

 
g|--------|----------------------------------------|
d|--------|----------------------------------------|
a|-0------|----------------------------------------|
e|--------|--3/5-----------3/5----------3/5--------|

There is a small rest from 1:35-1:45
and then this is played while the guitar solo is played

GUITAR SOLO    1:45- 2:06

g|------------------------|------------------------|----------------------|
d|------------------------|------------------------|----------------------|
a|------------10\---------|-----------10\----------|-----------10\--------|
e|-0--0-3/12------0-3-0-3-|-0--0-3/12------0-3-0-3-|-0--0-3/12-----0-3-0-3|

g|-------------------------|
d|-------------------------|
a|------------10\----------|
e|-0--0-3/12-------0-3-0-3-|

g|------------------------|------------------------|----------------------|
d|------------------------|------------------------|----------------------|
a|------------10\---------|-----------10\----------|-----------10\--------|
e|-0--0-3/12------0-3-0-3-|-0--0-3/12------0-3-0-3-|-0--0-3/12-----0-3-0-3|

g|--------------------------------|
d|--------------------------------|
a|--------------------------------|
e|-0-10p0-9p0-7p0-5p0-4p0-3p0-2p0-|

THEN THE VERSE   2:06-2:38

   
G|-----------12\-----------|-----------12\--------|
D|-------/14---------------|-------/14------------|
A|-0---X----------0-3--0-3-|-0---X----------X-0-3-|
E|-------------------------|----------------------|
  
G|-----------12\-------------|-----------12\--------|
D|-------/14-----------------|-------/14------------|     PLAY VERSE
A|-0---X---------X-0-3-X-0-3-|-0---X----------X-0-3-|       3 TIMES
E|---------------------------|----------------------|

Nothing is played from 2:38-2:48

VERSE 2:48-3:30
  
G|-----------12\-----------|-----------12\--------|
D|-------/14---------------|-------/14------------|
A|-0---X----------0-3--0-3-|-0---X----------X-0-3-|
E|-------------------------|----------------------|
   t------p----  t----------  t--------p---   t----
G|-----------12\-------------|-----------12\--------|
D|-------/14-----------------|-------/14------------|     PLAY VERSE
A|-0---X---------X-0-3-X-0-3-|-0---X----------X-0-3-|       4 TIMES
E|---------------------------|----------------------|

FINAL CHORUS  3:30-4:12
   
G|----------12\-------------|----------12\------------|
D|------/14-----------------|------/14----------------|
A|-0--X---------X-0-3-X-0-3-|-0--X----------X-0-3-----|
E|--------------------------|-------------------------|

G|----------12\--------------|----------12\-----------|
D|------/14------------------|------/14---------------|
A|-0--X----------X-0-3-X-0-3-|-0--X---------X-0-3-----|
E|---------------------------|------------------------|

G|-----------12\--------------|----------12------14--12--12\-|
D|-------/14------------------|------/14-------14--14--14----|
A|-0--X-----------X-0-3-X-0-3-|-0--X-------------------------|
E|----------------------------|------------------------------|

G|----------12\-------------|----------12\------------|
D|------/14-----------------|------/14----------------|
A|-0--X---------X-0-3-X-0-3-|-0--X----------X-0-3-----|
E|--------------------------|-------------------------|

G|----------12\------------|----------12\-----------------|
D|------/14----------------|------/14---------7P0-5P0-4P0-|
A|-0--X---------X-0-3-X-0-3|-0--X---------X-0-------------|
E|-------------------------|------------------------------|

G|----------12\-------------|----------12\------------|
D|------/14-----------------|------/14----------------|
A|-0--X---------X-0-3-X-0-3-|-0--X----------X-0-3-----|
E|--------------------------|-------------------------|

G|----------12\--------------|------------12\--------------|
D|------/14------------------|--------/14------------------|
A|-0--X---------X-0-3-X-0-3--|-0--X-X--------------0-3-0---|
E|---------------------------|-----------------0-3-------3-|

OUTRO  4:12-END
G|----------12\-------------|----------12\------------|
D|------/14-----------------|------/14----------------|
A|-0--X---------X-0-3-X-0-3-|-0--X----------X-0-3-----|
E|--------------------------|-------------------------|

G|----------12\--------------|------------12\--------------|
D|------/14------------------|--------/14------------------|
A|-0--X---------X-0-3-X-0-3--|-0--X-X--------------0-3-0---|
E|---------------------------|-----------------0-3-------3-|

G|----------12\-------------|----------12\------------|
D|------/14-----------------|------/14----------------|
A|-0--X---------X-0-3-X-0-3-|-0--X----------X-0-3-----|
E|--------------------------|-------------------------|

G|----------12\--------------|-----------------------------------------|
D|------/14------------------|-----------------------------------------|
A|-0--X---------X-0-3-X-0-3--|-0-0-3P0-5P0-6P0-7P0-10P0-11P0----12-----|
E|---------------------------|-----------------------------------------|

By crag 
            
Submit corrections

comments powered by Disqus
↑ Back to top | Red Hot Chili Peppers Bass for Give It Away. Lyrics for acoustic guitar and electric guitar. Tablatures and chords are parodies/interpretations of the original songs. You may use it for private study, scholarship, research or language learning purposes only