>
 >
Get On Top 3

Get On Top 3 Guitar Tabs

Red Hot Chili Peppers - Get On Top 3 chords, tabs, tablatures, lyrics

Guitar lessons | Add/correct | Request | Top 50 tabs Artists:  A B C D E F G H I J K L M N O P Q R S T U V W X Y Z 0-9

Get On Top 3 Guitar Tabs – Red Hot Chili Peppers

CD, Sheet music, Poster

Do you like Get On Top 3? Share with your friends now
Bass TabsBass Tabs v2TabsTabs v2Tabs v3Tabs v4Tabs v5
album:Californication
band:Red Hot Chili Pepper
submmitted by:Cody Wilson

Key:+=wah pedal down
    o=wah pedal closed
   ()=ghost note
    s=slide
    h=hammer-on
    x=muted with fret hand

Intro:gtr.1 w/distortion and wah
 riff A
  + o                 + o                 + o                 + o
e-----------------------------------------------------------------------
B-----------------------------------------------------------------------
G-----------------------------------------------------------------------
D-----------------------------------------------------------------------
A-7-7-7-7S10-10-10-10-7-7-7-7S10-10-10-10-7-7-7-7S10-10-10-10-7-7-7-7S10
E-----------------------------------------------------------------------

end riff A
e---------|
B---------|
G---------| play riff A 6 times
D---------|
A-10-10-10|
E---------|

Chorus:
 wah off,turn on delay set for one repeat
 riff b     end riff b
e---------------------                   ---------------12-
B---------------------                   ---------------12-
G---------------------  play that 5 times---------------12- play riff b 3
D-7-7-10-10--5h7-10-10    then you play  -7-7-10-10-5h7---- times again
A---------------------     this one      ------------------
H---------------------                   ------------------

 end of chorus
e-12-12-12--12|
B-12-12-12--12|
G-12-12-12--12| then play riff A 6 times, Chorus and then guitar solo
D-------------|
A-------------|
E-------------|

Guitar solo: w/wah                                    \
  +   o    +    o    +    o    +       play that twice \
e-10-(10)-(10)-(10)-(10)-(10)-(10)-(10)|                \
B-10-(10)-(10)-(10)-(10)-(10)-(10)-(10)|                 \
G-10-(10)-(10)-(10)-(10)-(10)-(10)-(10)|                  \
D--------------------------------------|                   \
A--------------------------------------|                    \
E--------------------------------------|                     \
                                                 play all     \       
  +  o   +   o   +   o   +   o play that twice   of that twice/             
e-8-(8)-(8)-(8)-(8)-(8)-(8)-(8)|                             /
B-8-(8)-(8)-(8)-(8)-(8)-(8)-(8)|                            /
G-9-(9)-(9)-(9)-(9)-(9)-(9)-(9)|                           /
D------------------------------|                          /
A------------------------------|                         /
E------------------------------|                        /

e------------------------------------------------------------------------|
B------------------------------------------------------------------------|
G-12s14-12-10-10s12----------------10-12s14--17--14----17--19s21---------|
D-------------------10s12----(s)\--------------------------------5-5s7-77|
A-10s12-10--8--8s10-----------------8-10s12--15--12----15--17s19---------|
E--------------------8s10----(s)\--------------------------------3-3s5-55|

e-------------------------------------------------------------------|
B-------------------------------------------------------------------|
G-------------------------------------------------------------------|
D7s10-10-10-10s12-12-12-12s14---------------------------------------|
A-------------------------------------------------------------------|
E-5s8--8--8--8s10-10-10-10s12-----/s13----13s15--(15)s\--12----12s14|
''
       play riff A 15 times then you're done





Comments


Popular Red Hot Chili Peppers tabs & chords
Blues For Meister 4 Bass Tabs
By The Way 5 Bass Tabs
Charlie Bass Tabs
Dosed 4 Bass Tabs
Fire 2 Bass Tabs
Hollywood 2 Bass Tabs
Havana Affair Tabs
Save The Population 2 Tabs
Universaly Speeking Tabs
Californication 2 Ukulele


Song lyrics



↑ Back to top | Tablatures and chords are parodies/interpretations of the original songs. You may use it for private study, scholarship, research or language learning purposes only
© 2014 AZChords.com Contact us | Privacy policy | DMCA | Add/correct tabs | Request tabs | Top 50 tabs