» » »

Red Hot Chili Peppers, Get On Top Bass tabs (ver.2)

Artists:  A B C D E F G H I J K L M N O P Q R S T U V W X Y Z # 

Get On Top Bass tabs (ver.2)

Red Hot Chili Peppers Tabs
 Rating:
4/5 (4 votes)
Get On Top lessons Tabs too difficult? Try these video lessons and learn fast
                Since there weren't any good tabs, I decided to tab this song out for you, 
although I'm not 100% sure about the verses, but it sounds good when I play it 
if this helped you!

S = Slap
P = Pop
h = Hammer-on
p = Pull-off
b = Bend
r = release
~ = Vibrato
/ = Slide up
\ = Slide down
x = Ghost note

Tuning: Standard (E A D G)

When there are no P's or S's, just pluck the notes.



  Verse 1:

G|----------9-9-7-9-----------------|
D|-------------------------x--------|
A|----------------------------------|  x3
E|--0-0---0----------0-0h3---0h3h5--|
    S S   S          S S   P S

G|----------9-9-7-9-----------------|
D|--------------------7-7-8-8-9-9---|
A|----------------------------------|  x1
E|--0-0---0-------------------------|
    S S   S

G|----------9-9-7-9-----------------|
D|-------------------------x--------|
A|----------------------------------|  x3
E|--0-0---0----------0-0h3---0h3h5--|
    S S   S          S S   P S

G|----------9-9-7-9-----------------|
D|--------------------7-7-8-8-9-9---|
A|----------------------------------|  x1
E|--0-0---0-------------------------|
    S S   S

G|----------9-9-7-9-------12--12----|
D|--------------------7/14--14------|
A|----------------------------------|  x1
E|--0-0---0-------------------------|
    S S   S

G|----------9-9-7-9-----------------|
D|-------------------------x--------|
A|----------------------------------|  x2
E|--0-0---0----------0-0h3---0h3h5--|
    S S   S          S S   P S

G|----------9-9-7-9-----------------|
D|--------------------7-7-8-8-9-9---|
A|----------------------------------|  x1
E|--0-0---0-------------------------|
    S S   S



  Chorus 1: (NOT slapped)

G|--------12h14-------12h14-----------------12h14-------12h14--------------|
D|-------------------------------------------------------------------------|
A|--10h12-------10h12-------10h12-----10h12-------10h12-------10h12p10h12--|
E|-------------------------------------------------------------------------|

G|--------12h14-------12h14-----------------12h14-------12h14--------------|
D|-------------------------------------------------------------------------|
A|--10h12-------10h12-------10h12-----10h12-------10h12-------10h12p10h12--|
E|-------------------------------------------------------------------------|

G|--------12h14-------12h14-----------------12h14-------12h14--------------|
D|-------------------------------------------------------------------12br--|
A|--10h12-------10h12-------10h12-----10h12-------10h12-------10h12--------|
E|-------------------------------------------------------------------------|

G|--------12h14-------12h14-----------------12h14-------12h14--------------|
D|-------------------------------------------------------------------------|
A|--10h12-------10h12-------10h12-----10h12-------10h12-------10h12p10h12--|
E|-------------------------------------------------------------------------|

G|--------12h14-------12h14------------------------------------------------|
D|----------------------------------------------14---14---14-----------14--|
A|--10h12-------10h12-------10h12------------------------------------------|
E|-------------------------------------------------------------------------|
                                                P    P    P            P


  Verse 2: Same as verse 1



  Chorus 2:

G|--------12h14-------12h14-----------------12h14-------12h14--------------|
D|-------------------------------------------------------------------------|
A|--10h12-------10h12-------10h12-----10h12-------10h12-------10h12p10h12--|
E|-------------------------------------------------------------------------|

G|--------12h14-------12h14-----------------12h14-------12h14--------------|
D|-------------------------------------------------------------------------|
A|--10h12-------10h12-------10h12-----10h12-------10h12-------10h12p10h12--|
E|-------------------------------------------------------------------------|

G|--------12h14-------12h14-----------------12h14-------12h14--------------|
D|-------------------------------------------------------------------------|
A|--10h12-------10h12-------10h12-----10h12-------10h12-------10h12p10h12--|
E|-------------------------------------------------------------------------|

G|--------12h14-------12h14-----------------12h14-------12h14--------------|
D|--------------------------------------------------------------12b~~~r----|
A|--10h12-------10h12-------10h12-----10h12-------10h12--------------------|
E|-------------------------------------------------------------------------|

G|--------12h14-------12h14------------------------------------------------|
D|----------------------------------------------14---14---14-----------14--|
A|--10h12-------10h12-------10h12------------------------------------------|
E|-------------------------------------------------------------------------|
                                                P    P    P            P


  Interlude: (With slight delay)

G|------7-7-----7-----7------|
D|---------------------------|
A|--5-x-----5/7---7/8---8-x--|  x8
E|---------------------------|
    S S P P S   P S   P S S

G|-----------------------------------------------|
D|------8-8-----8-8---8-------7-7-----7-7---7----|
A|-----------------------------------------------|
E|--6-x-----6-x-----6---6\5-x-----5-x-----5---5--|
    S S P P S S P P S P S S S P P S S P P S P S

G|-----------------------------------------------|
D|------8-8-----8-8-----------7-7-----7-7---7----|
A|-----------------------------------------------|
E|--6-x-----6-x------6/8--5-x-----5-x-----5---5--|
    S S P P S S P P  S    S S P P S S P P S P S

G|------7-7-----7-----7------|
D|---------------------------|
A|--5-x-----5/7---7/8---8-x--|  x2
E|---------------------------|
    S S P P S   P S   P S S

G|------------------------------------------------|
D|------8-8-----8-8---8-------1010----1010--10----|
A|------------------------------------------------|
E|--6-x-----6-x-----6---6/8-x-----8-x-----8---8\--|
    S S P P S S P P S P S S S P P S S P P S P S

G|------------------------------------------------|
D|------7-7-----7-7---7-------1414----1414--14----|
A|------------------------------------------------|
E|--5-x-----5-x-----5---5/12x-----12x-----12--12\-|
    S S P P S S P P S P S S S P P S S P P S P S

G|------------------------------------------------|
D|------8-8-----8-8---8-------1010----1010--10----|
A|------------------------------------------------|
E|--6-x-----6-x-----6---6/8-x-----8-x-----8---8\--|
    S S P P S S P P S P S S S P P S S P P S P S

G|------------------------------------------------|
D|------7-7-----7-7---7---------------------------|
A|------------------------------------------------|
E|--5-x-----5-x-----5---5---7--7--7~~-------------|
    S S P P S S P P S P S   S  S  S        



  Breakdown:
            Wah starts here
G|----------12121212---------12121212-|
D|-------------------14141414---------|
A|------------------------------------| x1
E|--7/12\-----------------------------|
    S

G|----------12121212---------12121212-|
D|--14141414---------14141414---------|
A|------------------------------------| x3
E|------------------------------------|



  Verse 3: Same as verse 1 and 2



  Outro: (With Wah)

G|----------12121212---------12121212--|
D|--14141414---------14141414----------|
A|-------------------------------------|  x7
E|-------------------------------------|

G|----------12121212-------------------|
D|--14141414---------14141414----------|
A|-------------------------------------|  x1
E|-------------------------------------|

That's it! Hope this helped and don't forget to rate.
            
Submit corrections

comments powered by Disqus
↑ Back to top | Red Hot Chili Peppers Bass for Get On Top. Lyrics for acoustic guitar and electric guitar. Tablatures and chords are parodies/interpretations of the original songs. You may use it for private study, scholarship, research or language learning purposes only