» » »

Get On Top Tabs (ver.2)

Artists:  A B C D E F G H I J K L M N O P Q R S T U V W X Y Z # 

Get On Top Tabs (ver.2)

Red Hot Chili Peppers
Rating:
0/5 (0 votes)

Tabs too difficult? Try these video lessons and learn fast.
                
Tuning: EADGBE

Intro/Verse/Outro (with Wah pedal)

E|---------------------|
B|---------------------|
G|---------------------|
D|---------------------|
A|-7-7-7-7-10-10-10-10-|
E|---------------------|

Chorus

E|---------------------------|  on  |-12-|
B|---------------------------| last |-12-|
G|---------------------------| time |-12-|
D|-5h7-10-10-5h7-10-10-10-10-| play |----|
A|---------------------------| this |----|
E|---------------------------|      |----|

Solo

E|-10-10-10-10-10-10-10-10-8-8-8-8-8-8-8-8-10-10-10-10-10-10-10-10-
B|-10-10-10-10-10-10-10-10-8-8-8-8-8-8-8-8-10-10-10-10-10-10-10-10-
G|-10-10-10-10-10-10-10-10-9-9-9-9-9-9-9-9-10-10-10-10-10-10-10-10-
D|-----------------------------------------------------------------
A|-----------------------------------------------------------------
E|-----------------------------------------------------------------

E|-8-8-8-8-8-8-8-8-10-10-10-10-10-10-10-10-12-12-12-12-12-12-12-12-
B|-8-8-8-8-8-8-8-8-11-11-11-11-11-11-11-11-13-13-13-13-13-13-13-13-
G|-9-9-9-9-9-9-9-9-10-10-10-10-10-10-10-10-12-12-12-12-12-12-12-12-
D|-----------------------------------------------------------------
A|-----------------------------------------------------------------
E|-----------------------------------------------------------------

E|-10-10-10-10-10-10-10-10-12-12-12-12-12-12-12-12-----------------
B|-11-11-11-11-11-11-11-11-13-13-13-13-13-13-13-13-----------------
G|-10-10-10-10-10-10-10-10-12-12-12-12-12-12-12-12-----------------
D|-----------------------------------------------------------------
A|-------------------------------------------------10h12-10-8-8h10-
E|-----------------------------------------------------------------

E|------------------------------------------------------------------
B|------------------------------------------------------------------
G|------------------------------------------------------------------
D|------------------------------------------------------------------
A|------10h12-15-12-15-17h19-17-------------------------------------
E|-8h10-------------------------3-3/5-5/8-8/10-10/12-12/13-13/15-12-

E|-------|
B|-------|
G|-------|
D|-9-9-9-|
A|-9-9-9-|
E|-7-7-7-|

The order is self-explanatory so work it out for yourself. I’m not being mean but you can’t be spoon-fed by everyone forever. You’ll only learn if you learn your way.
            
Tabs too difficult? Try these video lessons and learn fast.




comments powered by Disqus
↑ Back to top | Tablatures and chords are parodies/interpretations of the original songs. You may use it for private study, scholarship, research or language learning purposes only