» » »

Red Hot Chili Peppers, Get On Top Tabs (ver.1)

Artists:  A B C D E F G H I J K L M N O P Q R S T U V W X Y Z # 

Get On Top Tabs (ver.1)

Red Hot Chili Peppers Tabs
 Rating:
4/5 (4 votes)
Get On Top lessons Tabs too difficult? Try these video lessons and learn fast
                
Standard Tuning

Intro/Verse (play it fast and with wah wah pedal)
e -------------------------------------------------------------------
b -------------------------------------------------------------------
g -------------------------------------------------------------------
d -------------------------------------------------------------------
a --7--7--7--7-/-10--10-10-10-x-7--7--7-/-10-10-10-10----------------
e -------------------------------------------------------------------

e -------------------------------------------------------------------
b -------------------------------------------------------------------
g -------------------------------------------------------------------
d -------------------------------------------------------------------
a --7--7--7--7-/-10--10-10-10-x-7--7--7-/-10-10-10-10----------------
e -------------------------------------------------------------------
Chorus
e -------------------------------------------------------------------
b -------------------------------------------------------------------
g -------------------------------------------------------------------
d --7--7--10--10--5-/-(7)--10--10--7--7--10--10--x--5-/-(7)--10------
a -------------------------------------------------------------------
e -------------------------------------------------------------------
no singing on above
e -------------------------------------------------------------------
b -------------------------------------------------------------------
g -------------------------------------------------------------------
d --7-7-10-10---5-/-(7)--10-10--7-7-10-10--x--5-/-(7)-10-7-7-10-10---
a -------------------------------------------------------------------
e -------------------------------------------------------------------
  start singing on above
e ---------------------------------------12--------------------------
b ---------------------------------------12--------------------------
g ---------------------------------------12--------------------------
d --5-/-(7)-10-10--7-7-10-10--x-5-/-(7)------7-7-10-10--5-/-(7)-10-10
a -------------------------------------------------------------------
e -------------------------------------------------------------------

e ----------------------------------------------------12-12-12----12-
b ----------------------------------------------------12-12-12----12-
g ----------------------------------------------------12-12-12----12-
d --7-7-10-10--x--5-/-(7)-10--7-7-10-10-5-/-(7)-10-10----------------
a -------------------------------------------------------------------
e -------------------------------------------------------------------
                                                              right on 
Interlude 2 Gtr.s 
Gtr. 1 w/ wah wah (just keep repeating)
e --10-let ring out-8-let ring out-10-let ring out-------------------
b --10--------------8--------------11--------------------------------
g --10--------------9--------------10--------------------------------
d -------------------------------------------------------------------
a -------------------------------------------------------------------
e -------------------------------------------------------------------
Gtr. 2
e -------------------------------------------------------------------
b -------------------------------------------------------------------
g --12-/-14--12-10-/-12-------10--12-/-14--17--14---17--19-21--19----
d ---x-/--x---x--x-/--x--12-/--x---x-/--x---x---x----x---x--x---x----
a --10-/-12--10--8-/-10---x-/--8--10-/-12--15--12---15--17-19--17----
e -----------------------10-/----------------------------------------
Gtr. 2
e -------------------------------------------------------------------
b -------------------------------------------------------------------
g -------------------------------------------------------------------
d --5-5-/-7-7-7-7-/-10-10-10-/-12-12-12-/-14-------------------------
a --x-x-/-x-x-x-x-/--x--x--x-/--x--x--x-/--x-------------------------
e --3-3-/-5-5-5-5-/--8--8--8-/-10-10-10-/-12-/13-13/15--(15)/12-12/14
Outro
e -------------------------------------------------------------------
b -------------------------------------------------------------------
g -------------------------------------------------------------------
d -------------------------------------------------------------------
a --7--7--7--7-/-10--10--10--10--x--7--7--7--------------------------
e -------------------------------------------------------------------
above also doubles for last chorus played right before it cuts off
            
Submit corrections

comments powered by Disqus
↑ Back to top | Red Hot Chili Peppers Tabs for Get On Top. Lyrics for acoustic guitar and electric guitar. Tablatures and chords are parodies/interpretations of the original songs. You may use it for private study, scholarship, research or language learning purposes only