» » »

Red Hot Chili Peppers, Factory Of Faith Tabs (ver.2)

Artists:  A B C D E F G H I J K L M N O P Q R S T U V W X Y Z # 

Factory Of Faith Tabs (ver.2)

Red Hot Chili Peppers Tabs
Rating:
0/5 (0 votes)
Factory Of Faith lessons Tabs too difficult? Try these video lessons and learn fast
                Song Title: Factory of Faith
Artist Title: Red Hot Chili Peppers
Album Title: I'm With You

Verse 1:
e|-------------------------------|---------------------------20-20-20-20-20-20-20-||
B|-18-18---18---20--20-20--20-20-|--18-18---18---20--20-20---20-20-20-20-20-20-20-||
G|-19-19---19---19--19-19--19-19-|--19-19---19---19--19-19------------------------||
D|-------------------------------|------------------------------------------------||
A|-------------------------------|------------------------------------------------||
E|-------------------------------|------------------------------------------------||

Chorus:
e|-----------6------------------11-11---||
B|------6----6---11-11-11-10-10-10------||
G|-7--7---7--7----9--9-----9-----9------||
D|-7---------8---10-10----10----10------||
A|-5---------8--------------------------||
E|-----------6--------------------------||

Solo 1:
e|-------------------------------------------------------------------------||
B|-------------------------------------------------------------------------||
G|-------------------------------------------------------------------------||
D|-------------------------------------------------------------------------||
A|----12b13r12b13r12-------------------------------------------------------||
E|-5---------------------13-13-13-12-13---8b10r8---------------------------||

Verse 2:
e|-15-15-15-15-15-15/9-||-15-15-15/13-13-13/12-12-12/10-10-10/8-8-8--||
B|---------------------||-------------------------------------------o||
G|---------------------||--------------------------------------------||
D|---------------------||--------------------------------------------||
A|---------------------||-------------------------------------------o||
E|---------------------||--------------------------------------------||

Chorus:{As Previously Show}

Bridge:
e|------------------------------|
B|------------------------------|
G|----------------6--5--7--5----|
D|-7--5--7--5-7-5-6--5--7--5--8-|
A|-7--5--7--5-7-5-4--3--5--3--8-|
E|-5--3--5--3-5-3-------------6-|

e|------------------------------|
B|------------------------------|
G|----------------6--5--7--5-5--|
D|-7--5--7--5-7-5-6--5--7--5-5--|
A|-7--5--7--5-7-5-4--3--5--3-3--|
E|-5--3--5--3-5-3---------------|

e|------------------------------|
B|------------------------------|
G|----------------6--5--7--5----|
D|-7--5--7--5-7-5-6--5--7--5--8-|
A|-7--5--7--5-7-5-4--3--5--3--8-|
E|-5--3--5--3-5-3-------------6-|

e|----------------------------------------------------------------------------||
B|----------------------------------------------------------------------------||
G|----------------6--5--7--5-5--3-3--2-2-2-2-2-2-2-2/14-14-14-14-14-14-14-14--||
D|-7--5--7--5-7-5-6--5--7--5-5--3-3--2-2-2-2-2-2-2-2/14-14-14-14-14-14-14-14--||
A|-7--5--7--5-7-5-4--3--5--3-3--1-1--0-0-0-0-0-0-0-0/12-12-12-12-12-12-12-12--||
E|-5--3--5--3-5-3-------------------------------------------------------------||

Chorus:{As Previously Shown}

Outro:
e|---------------------|-5-x-5-x-5-x-5-x-|-10-x-10-x-10-x-10-x-9-9-9-9-9-9-9-9--|
B|---------------------|-6-x-6-x-6-x-8-x-|-10-x-10-x-10-x-10-x-9-9-9-9-9-9-9-9--|
G|---------------------|-7-x-7-x-7-x-7-x-|-10-x-10-x-10-x-10-x-9-9-9-9-9-9-9-9--|
D|---------------------|-----------------|--------------------------------------|
A|---------------------|-----------------|--------------------------------------|
E|-10-x-10-x-10-x-10-x-|-----------------|--------------------------------------|

Ending:
e|-10-x-10-x-10-x-10-x10---10\-||
B|-10-x-10-x-10-x-10-x10---10\-||
G|-10-x-10-x-10-x-10-x10---10\-||
D|-----------------------------||
A|-----------------------------||
E|-----------------------------||
            
Submit corrections

comments powered by Disqus
↑ Back to top | Red Hot Chili Peppers Tabs for Factory Of Faith. Lyrics for acoustic guitar and electric guitar. Tablatures and chords are parodies/interpretations of the original songs. You may use it for private study, scholarship, research or language learning purposes only