» » »

Red Hot Chili Peppers, Factory Of Faith Bass tabs (ver.2)

Artists:  A B C D E F G H I J K L M N O P Q R S T U V W X Y Z # 

Factory Of Faith Bass tabs (ver.2)

Red Hot Chili Peppers Tabs
Rating:
0/5 (0 votes)
Factory Of Faith lessons Tabs too difficult? Try these video lessons and learn fast
                G|--------|
D|--------|
A|-5/17\5-|
E|--------|

G|----------|-----------------|----------|-------------|
D|----------|-----------------|----------|--7-7---10---|
A|5-5-8-8---|--10-10-8-9-10---|5-5-8-8---|-------------|
E|--------6-|6--------------8-|--------6-|5-----8----8-|

G|----------|-----------------|----------|----|------|
D|----7-7---|-----------------|----7-7---|----|------|
A|5-5-------|--10-10-8-9-10---|5-5-------|----|------|
E|--------6-|6--------------8-|--------6-|6-3-|3-8-8-|

Verse (Main Part)
G|----------|-----------------|----------|-------------|
D|----------|-----------------|----------|--7-7---10---|
A|5-5-8-8---|--10-10-8-9-10---|5-5-8-8---|-------------|
E|--------6-|6--------------8-|--------6-|5-----8----8-|

G|----------|-----------------|----------|----|------|
D|----7-7---|-----------------|----7-7---|----|------|
A|5-5-------|--10-10-8-9-10---|5-5-------|----|------|
E|--------6-|6--------------8-|--------6-|6-3-|3-8-8-|


Chorus
G|--7---10--10--|----------------|
D|--------------|-8---8---8---8--|
A|5---5---8-----|----------------|
E|-------------6|---6---6---6----|

Interlude 
G|------------------------------------|
D|7-7-7--5-5-5--7-7-7--5-5-5--7-7-5-5-|
A|------------------------------------|
E|------------------------------------|

G|--------------------------------------------|
D|11-11-11-10-10-10-12-12-12-10-10-10-8-8-8-8-|
A|--------------------------------------------|
E|--------------------------------------------|

G|--------------------------------|
D|7-7-7-5-5-5-7-7-7-5-5-5-7-7-5-5-|
A|--------------------------------|
E|--------------------------------|

G|---------------------------------------------------|
D|11-11-11-10-10-10-12-12-12-10-10-10-10-10-10-10-10-|
A|---------------------------------------------------|
E|---------------------------------------------------|

G|------------------------------------------|
D|10-7-7-7-5-5-5-7-7-7-5-5-5-7-7-5-5--------|
A|------------------------------------------|
E|------------------------------------------|

G|--------------------------------------------|
D|11-11-11-10-10-10-12-12-12-10-10-10-8-8-8-8-|
A|--------------------------------------------|
E|--------------------------------------------|

G|----------------------------------|
D|7-7-7-5-5-5-7-7-7-5-5-5-5-7-7-5-5-|
A|----------------------------------|
E|----------------------------------|

G|-----------------------------------|
D|11-11-11-10-10-10-12~----10-10-8-8-|
A|-----------------------------------|
E|-----------------------------------|

G|--------------------------|
D|7-7-----------------------|
A|----0-0-0-0-0-0-0-0-0-0-5~|
E|--------------------------|
            

comments powered by Disqus
↑ Back to top | Red Hot Chili Peppers Bass for Factory Of Faith. Lyrics for acoustic guitar and electric guitar. Tablatures and chords are parodies/interpretations of the original songs. You may use it for private study, scholarship, research or language learning purposes only