» » »

Factory Of Faith Bass tabs (ver.3)

Artists:  A B C D E F G H I J K L M N O P Q R S T U V W X Y Z # 

Factory Of Faith Bass tabs (ver.3)

Red Hot Chili Peppers
Rating:
0/5 (0 votes)

Hard to play? Try these video lessons and learn fast.
                FACTORY OF FAITH BASS
Red Hot Chili Peppers
I'M WITH YOU

Intro
|-------|
|-------|
|-1/15\-|
|-------|

VERSE
1st. Half
|-------------------------|-----------------------|
|----3--3----5--5-3-4-5---|----3--3----7--7-10----|
|-5-5----1--1-----------3-|-5-5-------------------|
|-------------------------|--------6--5----8--8---|

2nd. Half                  Ending 1. 
|-------------------------|--------------------|
|----7--7----5--5-3-4-5---|----7--7------------|
|-5-5----1--1-----------3-|-5-5----1--1----3-3-|
|-------------------------|------------3--3----|
____________________________________________________________________

Ending 2.              Ending 3.              Ending 4.              
|-----------------5--| |--------------------| |--------------------| 
|----7--7------------| |----7--7------------| |----7--7------------| 
|-5-5----1--1----3-3-| |-5-5----1--1----3-3-| |-5-5----1--1----333-| 
|------------3--3----| |------------3--3-5--| |------------3--3----| 

Ending 5.
|----------------------|
|----7--7--------------|
|-5-5----1--1----3/15\-|
|------------3--3------|
_____________________________________________________________________

1st Verse:
Ending 1 (x2), 1st. Half Only, Ending 2, Ending 3.

CHORUS: 

(two of 3/4, then two of 4/4)
 
  *  *   *     *  *   *    *  *   *   *     *    *   *   *
|------------|-----------|----------------|---5----5-----5---|
|------------|--------8--|----------------|------------------|
|-5--5-5-5-5-|-----------|-3--3-3-3-3-3-3-|-3----3---3-3-----|
|------------|-6--6-6---6|----------------|------------------|

  *  *   *     *  *   *    *   *   *   *     *   *   *   *
|----7----10-|-----------|-------5---------|---5---5-----5--|
|------------|--------8--|-----------------|----------------|
|-5----5/8---|-----------|-3-3-3---3-3-3-3-|-3---3---3-3----|
|------------|-6--6-6---6|-----------------|----------------|

(two of 3/4, one of 6/4) 

  *  *   *     *  *   *    *   *   *   *   *   *      
|------------|-----------|-------5-----------5---5-|
|------------|--------8--|-------------------------|
|-5--5-5-5-5-|-----------|-3-3-3---3-3-3-3-3---3---|
|------------|-6--6-6---6|-------------------------|

  *  *   *     *  *   *    *   *   *   *     *   *   *   *
|----7----10-|-----------|-------5---------|---5---5-----5--|
|------------|-----------|-----------------|----------------|
|-5----5/8---|-----------|-3-3-3---3-3-3-3-|-3---3---3-3----|
|------------|-6--6-6-6-6|-----------------|----------------|

Verse 2:
Ending 1 (x2), Ending 4.

Chorus.

Bridge:
|---------------------------------|-6-6-6-5-5-5-7-7-7-5-5-5---------|
|-7-7-7-5-5-5-7-7-7-5-5-5-7-7-5-5-|-------------------------8-8-8---|
|---------------------------------|---------------------------------|
|---------------------------------|---------------------------------|

|---------------------------------|-6-6-6-5-5-5-7-7-7-5-5-5-5-5-5---|
|-7-7-7-5-5-5-7-7-7-5-5-5-7-7-5-5-|---------------------------------|
|---------------------------------|---------------------------------|
|---------------------------------|---------------------------------|

|---------------------------------|-6-6-6-5-5-5-7-7-7-5-5-5---------|
|---7-7-7-5-5-5-7-7-7-5-5-7-7-5-5-|-------------------------8-8-8---|
|---------------------------------|---------------------------------|
|---------------------------------|---------------------------------|

|---------------------------------|-6-6-6-5-5-5-7-----------5-------|
|-7-7-7-5-5-5-7-7-7-5-5-5-7-7-5-5-|-----------------------------8---|
|---------------------------------|---------------------------------|
|---------------------------------|---------------------------------|

|---------------------------------|
|----------------/7-7-7-7-7-7-7-7-|
|---------------------------------|
|-5-5-5-5-5-5-5-5-----------------|

Chorus.

Verse 3/End:
Ending 1, Ending 5, Ending 4, Ending 1.
            
Hard to play? Try these video lessons and learn fast. | Correct




comments powered by Disqus
↑ Back to top | Tablatures and chords are parodies/interpretations of the original songs. You may use it for private study, scholarship, research or language learning purposes only