» » »

Red Hot Chili Peppers, Desecration Smile Bass tabs (ver.3)

Artists:  A B C D E F G H I J K L M N O P Q R S T U V W X Y Z # 

Desecration Smile Bass tabs (ver.3)

Red Hot Chili Peppers Tabs
 Rating:
4/5 (4 votes)
Desecration Smile lessons Tabs too difficult? Try these video lessons and learn fast
1
                Band: Red Hot Chili Peppers
Bassist: Flea

___________________
h   - hammer-on    |
p   - pull-off     |
s   - slide        |
r   - let note ring|
___________________|


Intro:
G|-13------------13--11------|
D|-----------------------14--|
A|---------------------------| (2x)
E|---------------------------|


Verse:
G|--------9-------------------------|-------9----------5------------|
D|------7--7h9p7--------------------|------7--7h9p7------5h7p5------|
A|-7-7-7---------5-5-x-3-x-3-3s5s7--|-7-7-7---------5-5--------7-5--| (5x)
E|----------------------------------|-------------------------------|

Chorus: Part 1                  
G|----------------------------|
D|-------------7-5------------|
A|-7r--5-5-5-------7-7-7-7-7--|
E|-----------5----------------|

Chorus: Part 2
G|----------------------------|
D|----------------------------|
A|-5-5-5-5--------------------|
E|---------5-5-5-5------------|

Breakdown: "we could all go to Malibu...."
G|-------------12-11--------------------|
D|-------------------9------------------|
A|-3-3-3---------------10-9-7--------3--|
E|-------3-0r----------------9-7-5-3----|

Outro
G|-13---------13--11---------11-11h13-13-13-13---13s18-16-----------------|
D|-------------------14---14------------------------------18-16-18-16-14r-|
A|------------------------------------------------------------------------|
E|------------------------------------------------------------------------|


Order:
intro         (2x)
verse         (5x)
chorus part 1 (3x)
chorus part 2 (1x)
verse         (5x)
chorus part 1 (3x)
chorus part 2 (1x)
breakdown     (5x)
verse         (3x)
chorus part 1 (3x)
chorus part 2 (1x)
chorus part 1 (3x)
chorus part 2 (1x)
outro         (1x)
            
Submit corrections

comments powered by Disqus
↑ Back to top | Red Hot Chili Peppers Bass for Desecration Smile. Lyrics for acoustic guitar and electric guitar. 1 Tablatures and chords are parodies/interpretations of the original songs. You may use it for private study, scholarship, research or language learning purposes only