>
 >
Desecration Smile 2

Desecration Smile 2 Bass Tabs

Red Hot Chili Peppers - Desecration Smile 2 chords, tabs, tablatures, lyrics

Guitar lessons | Add/correct | Request | Top 50 tabs Artists:  A B C D E F G H I J K L M N O P Q R S T U V W X Y Z 0-9

Desecration Smile 2 Bass Tabs – Red Hot Chili Peppers

CD, Sheet music, Poster

Do you like Desecration Smile 2? Share with your friends now
Bass TabsBass Tabs v2Bass Tabs v3ChordsChords v2Chords v3Chords v4Chords v5TabsTabs v2Tabs v3Ukulele
Desecration Smile           

played by Flea



     Q        W                 
G||-------|--------------------|
D||-------|--18----------------|
A||-------|--------------------|
E||-------|--------------------|


   H         Q     Q     
------------------------|
---L--------18----16----|
------------------------|
------------------------|


   W                   H.           Q     
--------------------|--------------------|
--14----------------|--L-----------------|
--------------------|--------------------|
--------------------|--------------------|


   W                   H         Q     Q     
--------------------|-----------------------|
--18----------------|--L--------18----16----|
--------------------|-----------------------|
--------------------|-----------------------|


   W                   H.           Q     
--------------------|--------------------|
--14----------------|--L-----------------|
--------------------|--------------------|
--------------------|--------------------|


  Q    E.  S S S E  S S E    
-----------------9--L-------|
---------------9------9-----|
--7----7---7-L----------7S--|
----------------------------|


  Q    E.   S S S E  S S E   
----------------------------|
----------------------------|
--5----5S---3---0-3--L-0-5--|
----------------------------|


  Q    E.  S S S E  S S E    
-----------------9--L-------|
---------------9------9-----|
--7----7---7-L----------7S--|
----------------------------|


  Q    E  S S S S E   S S S S  
------------7-----------------|
----------7---L-------7-5-----|
--5----5--------0-3/------7-5-|
------------------------------|


  Q    E.  S S S E  S S E    
-----------------9--L-------|
---------------9------9-----|
--7----7---7-L----------7S--|
----------------------------|


  Q    E.   S S S E  S S E   
----------------------------|
----------------------------|
--5----5S---3---0-3--L-0-5--|
----------------------------|


  Q    E.  S S S E  S S E    
-----------------9--L-------|
---------------9------9-----|
--7----7---7-L----------7S--|
----------------------------|


  Q    E  S S S S E     E  E   
------------7-L---------------|
----------7----------/5g7-----|
--5----5--------0-3--------5--|
------------------------------|


  Q    E.  S S S E  S S E    
-----------------9--L-------|
---------------9------9-----|
--7----7---7-L----------7S--|
----------------------------|


  Q    E.   S S S E  E  E   
---------------------------|
---------------------------|
--5----5S---3---0-3--0--5--|
---------------------------|


  Q    E  S S S S E  S S E    
------------------9--L-------|
----------------9------9-----|
--7----7--7-7-L----------7S--|
-----------------------------|


  Q    E  S S S S E    E  E   
------------7-L--------------|
----------7----------/10--7--|
--5----5--------0-3----------|
-----------------------------|


  Q    E.  S S S E  S S E    
-----------------9--L-------|
---------------9------9-----|
--7----7---7-L----------7S--|
----------------------------|


  Q    E.   S S S E  S S E   
----------------------------|
----------------------------|
--5----5S---3---0-3--L-0-5--|
----------------------------|


  Q    E.  S S S E  S S E    
-----------------9--L-------|
---------------9------9-----|
--7----7---7-L----------7S--|
----------------------------|


  Q    E  S S S S E     E  E   
------------7-L---------------|
----------7----------------5--|
--5----5--------0-3--/5g7-----|
------------------------------|


  Q    E.  S S S E  S S E    
-----------------9--L-------|
---------------9------9-----|
--7----7---7-L----------7S--|
----------------------------|


  Q    E.   S S S E  S S E   
----------------------------|
----------------------------|
--5----5S---3---0-3--L-0-5--|
----------------------------|


  Q    E.  S S S E  S S E    
-----------------9--L-------|
---------------9------9-----|
--7----7---7-L----------7S--|
----------------------------|


  Q    E  S S S S E  E  E   
------------7-L------------|
----------7----------------|
--5----5--------0-3--3--5--|
---------------------------|


  Q    E  S S S S E  E  E   
---------------------------|
---------------------------|
--7----7--7-7-L-7-7--7--7--|
---------------------------|


  Q    E.  S S S E  E  E   
--------------------------|
--------------------------|
--5----5---5--------------|
---------------x-5--5--5--|


  Q    E.  S S S E  E  E   
--------------------------|
--------------------------|
--------------------------|
--0----0---0---0-0--L--0--|


  Q    E.  S S S E  Q     
-------------------------|
-------------------------|
--5----5---5-------------|
---------------x-5--5----|


  Q    E.  S S S E  E  E   
--------------------------|
--------------------------|
-------7---7-L---7-----7--|
--0------------0----0-----|


  Q    E.  S S S E  E  E   
--------------------------|
--------------------------|
--5----5---5--------------|
---------------x-5--5--5--|


  Q    E.  S S S E  E  E   
--------------------------|
--------------------------|
-------7---7-----7-----7--|
--0------------0----7-----|


  Q    E  S S S S E  E  E   
---------------------------|
---------------------------|
--5----5--5-5-L-5-5--5--5--|
---------------------------|


  Q    E  S S S S E  E  E   
---------------------------|
---------------------------|
---------------------------|
--5----5--5-5-L-5-5--5-----|


  Q    E.  S S S E  S S E    
-----------------9--L-------|
---------------9------9-----|
--7----7---7-L----------7S--|
----------------------------|


  Q    E.   S S S E    E  E   
-----------------------------|
---------------------5g7-----|
--5----5S---3---x-3-------5--|
-----------------------------|


  Q    E.  S S S E  S S E    
-----------------9--L-------|
---------------9------9-----|
--7----7---7-L----------7S--|
----------------------------|


  Q    E  S S S S E    E  E   
------------7-L-----------7--|
----------7----------5g9-----|
--5----5--------0-3----------|
-----------------------------|


  Q    E.  S S S E  S S E    
-----------------9--L-------|
---------------9------9-----|
--7----7---7-L----------7S--|
----------------------------|


  Q    E.  S S S E  S S E   
---------------------------|
---------------------------|
--5----5---3---0-3--L-0-5--|
---------------------------|


  Q    E.  S S S E  S S E    
-----------------9--L-------|
---------------9------9-----|
--7----7---7-L----------7S--|
----------------------------|


  Q    E  S S S S E  S S S S  
------------7-L--------------|
----------7----------7-5-----|
--5----5--------0-3------7-5-|
-----------------------------|


  Q    E.  S S S E  S S E    
-----------------9--L-------|
---------------9------9-----|
--7----7---7-L----------7S--|
----------------------------|


  Q    E  S S E  S  S S S  S S  
----------------------7--------|
-----------------5s-9---9s-7-5-|
--5----5--0-3-L----------------|
-------------------------------|


  Q    E.  S E  E  S S E    
----------------9--L-------|
---------------------9-----|
--7----7---7-L---------7S--|
---------------------------|


  Q    E  S S S S E  E  E   
------------7-L------------|
----------7----------------|
--5----5--------0-3--3--5--|
---------------------------|


  Q    E.  S S S E  S S E    
-----------------9--L-------|
---------------9------9-----|
--7----7---7-L----------7S--|
----------------------------|


  Q    E.  S S S E  S S E   
---------------------------|
---------------------------|
--5----5---3---0-3--L-0-5--|
---------------------------|


  Q    E.  S S S E  S S E    
-----------------9--L-------|
---------------9------9-----|
--7----7---7-L----------7S--|
----------------------------|


  Q    E  S S S S E   S S S S  
------------7-L---------------|
----------7-----------9-7-5---|
--5----5--------0-3/--------5-|
------------------------------|


  Q    E.  S S S E  S S E    
-----------------9--L-------|
---------------9------9-----|
--7----7---7-L----------7S--|
----------------------------|


  Q    E.   S S S E  S S E   
----------------------------|
----------------------------|
--5----5S---3---0-3--L-0-5--|
----------------------------|


  Q    E.  S E  E  S S E    
----------------9--L-------|
---------------------9-----|
--7----7---7-L---------7S--|
---------------------------|


  Q    E  S S S S E  E  E   
------------7-L------------|
----------7----------------|
--5----5--------0-3--3--3--|
---------------------------|


  E  S S E.  S S S E  S S E   
-----------------------------|
-----------------------------|
--7------7-----7---7--7---7--|
-----0-0-----0---0------0----|


  Q    E.  S S S E  E  E   
--------------------------|
--------------------------|
--5----5---5--------------|
---------------x-5--5--5--|


  Q    E  S S S S S S S S E   
----------------9------------|
------------7-9-----9-L------|
-------7------------------7--|
--0-------0-------------0----|


  Q    E.  S S S E  E  E   
--------------------------|
--------------------------|
--5----5---5--------------|
---------------0-5--5--5--|


  Q    E  S S S S E  E  E   
---------------------------|
---------------------------|
-------7----7-L---7-----7--|
--0-------0-----0----7-----|


  Q    E.  S S S E  E  E   
--------------------------|
--------------------------|
--5----5---5--------------|
---------------x-5--5--5--|


  E  E  E  S   S S  S  E   E   E   
----------------------------------|
----------------------------------|
----------------------------------|
--0--0--0--5s-12-L-12-12--12--12--|


  Q    E  S S S S E  E  E   
---------------------------|
---------------------------|
--5----5--5-5-L-5-5--5--5--|
---------------------------|


  Q    E  S S S S E  E  S S  
----------------------------|
----------------------------|
----------------------------|
--5----5--x-5-L-5-5--5--5-5-|


  Q    E.  S S S E  E  E   
--------------------------|
--------------------------|
--3----3---3--------------|
---------------x-3--3--3--|


  Q     S  S S S  S S S S S S E   
-------12-11-9-------------------|
---------------9-----------------|
-----------------10-9-7-5--------|
--0-----------------------7-5-3--|


  Q    E.  S S S E  E  E   
--------------------------|
--------------------------|
--3----3---3--------------|
---------------x-3--3--3--|


  Q     S  S S S  S S S S S S E   
-------12-11-9-------------------|
---------------9-----------------|
-----------------10-9-7-5--------|
--0-----------------------7-5-3--|


  Q    E.  S S S E  E  E   
--------------------------|
--------------------------|
--3----3---3--------------|
---------------x-3--3--3--|


  Q     S  S S S  S S S S S S E   
-------12-11-9-------------------|
---------------9-----------------|
-----------------10-9-7-5--------|
--0-----------------------7-5-3--|


  Q    E.  S S S E  E  E   
--------------------------|
--------------------------|
--3----3---3--------------|
---------------x-3--3--3--|


  Q     S  S S S  S S S S S S E   
-------12-11-9-------------------|
---------------9-----------------|
-----------------10-9-7-5--------|
--0-----------------------7-5-3--|


  Q    E.  S S S E  E  E   
--------------------------|
--------------------------|
--3----3---3--------------|
---------------x-3--3--3--|


  Q     S  S S S  S S S S S S E   
-------12-11-9-------------------|
---------------9-----------------|
-----------------10-9-7-5--------|
--0-----------------------7-5-3--|


  Q    E.  S S S E  E  E   
--------------------------|
--------------------------|
--3----3---3-L------------|
---------------0-3--3-----|


  Q    E.  S S S E  S S E    
-----------------9--L-------|
---------------9------9-----|
--7----7---7-L----------7S--|
----------------------------|


  Q    E.   S S S E  S S E   
----------------------------|
----------------------------|
--5----5S---3---x-3--L-x-5--|
----------------------------|


  Q    E.  S S S E  S S E    
-----------------9--L-------|
---------------9------9-----|
--7----7---7-L----------7S--|
----------------------------|


  Q    E  S S S S E     E  S  S  
------------7-L-----------------|
----------7----------/5g9--7----|
--5----5--------0-3----------10-|
--------------------------------|


  Q    E.  S S S E  S S E    
-----------------9--L-------|
---------------9------9-----|
--7----7---7-L----------7S--|
----------------------------|


  Q    E.  S S S E  S S E   
---------------------------|
---------------------------|
--5----5---3---0-3--L-0-5--|
---------------------------|


  Q    E.  S S S E  S S E    
-----------------9--L-------|
---------------9------9-----|
--7----7---7-L----------7S--|
----------------------------|


  Q    E  S S S S E  E  E   
------------7-L------------|
----------7----------5-----|
--5----5--------0-3-----5--|
---------------------------|


  Q    E.  S S S E  S S E    
-----------------9--L-------|
---------------9------9-----|
--7----7---7-L----------7S--|
----------------------------|


  Q    E.   S S S E     E  E   
------------------------------|
---------------------/5g7--5--|
--5----5S---3---x-3-----------|
------------------------------|


  Q    E.  S S S E  S S E    
-----------------9--L-------|
---------------9------9-----|
--7----7---7-L----------7S--|
----------------------------|


  Q    E  S S S S E  S S E   
------------7-L-------------|
----------7-----------------|
--5----5--------0-3--L-0-5--|
----------------------------|


  E  E  E.  S S S S S E  E   
----------------------------|
----------------------------|
--7--7--7---7-7-7-7-7-7--7--|
----------------------------|


  Q    E.  S S S E  E  E   
--------------------------|
--------------------------|
--5----5---5--------------|
---------------x-5--5--5--|


  Q    E  S S S S E  S S E   
----------------------------|
----------------------------|
-------7----7-----7--L---7--|
--0-------0-----0------0----|


  Q    E.  S  S   S E  E  S S  
------------------------------|
------------------------------|
--5----5---5-(5)\-------------|
------------------x-5--5--5-5-|


  Q    E  S S S S E  E  S S  
----------------------------|
----------------------------|
-------7----7-L---7--L----7-|
--0-------0-----0-------0---|


  E  E  E.  S S  S E  E  E   
----------------------------|
----------------------------|
--5--5--5---5-L\------------|
-----------------x-5--5--5--|


  Q    E  S S S S E  E  E   
---------------------------|
---------------------------|
-------7----7-L---7--7--7--|
--0-------0-----0----------|


  Q    E  S S S S E  S S E    
-----------------------------|
-----------------------------|
--5----5--5-5-L-5-5--5-5-5\--|
-----------------------------|


  Q    E  S S S S E  E  E   
---------------------------|
---------------------------|
---------------------------|
--5----5--5-5-L-5-5--0--0--|


  E  E  E  S S  S   S E  E  S S  
--------------------------------|
--------------------------------|
--5--5--5--5-5-(5)\-------------|
--------------------x-5--5--5-5-|


  Q    E  S S S S E  S S S S  
-----------------------------|
-----------------------------|
-------7----7-L---7--L---7---|
--0-------0-----0------0---0-|


  E  E  E.  S  S   S E  E  E   
------------------------------|
------------------------------|
--5--5--5---5-(5)\------------|
-------------------x-5--5--5--|


  Q    E  S S S S E  E  E   
---------------------------|
---------------------------|
-------7----7-L---7-----7--|
--0-------0-----0----0-----|


  E  E  E  S S  S   S E  E  E   
-------------------------------|
-------------------------------|
--5--5--5--5-5-(5)\------------|
--------------------x-5--5--5--|


  Q    E  S S S S E  E  E   
---------------------------|
---------------------------|
-------7----7-L-7-7-----7--|
--0-------0----------0-----|


  Q    E  S S S S E  E  E    
----------------------------|
----------------------------|
--5----5--5-5-L-5-5--5--5\--|
----------------------------|


  Q    E  S S S S E   E    E   
------------------------------|
------------------------------|
------------------------------|
--5----5--5-5-L-5-5--(5)\-----|


   W                 
--------------------|
--18----------------|
--------------------|
--------------------|


  H         Q     Q      
------------------------|
--L--------18----16S----|
------------------------|
------------------------|


   W                 
--------------------|
--14----------------|
--------------------|
--------------------|


  H        Q.      S  S  
------------------------|
--L--------L------14-16-|
------------------------|
------------------------|


   S   S  S  S  H.            
-----------------------------|
--16s-18-18-18-18------------|
-----------------------------|
-----------------------------|


  Q         E   E   S   E.   E    E   
-------/16g18--16--------------------|
--L----------------18s-16---16s--14--|
-------------------------------------|
-------------------------------------|


   W                  
--------------------||
--14----------------||
--------------------||
--------------------||




Duration Legend
---------------
W - whole
H - half
Q - quarter
E - 8th
S - 16th
T - 32nd
X - 64th
. - note dotted
|-n-|  - n-tuplets


Tablature Legend
----------------
L - tied note
x - dead note
g - grace note
(n) - ghost note
> - accentuded note
NH - natural harmonic
AH - artificial harmonic
TH - tapped harmonic
SH - semi harmonic
PH - pitch harmonic
h - hammer on
p - pull off
b - bend
br - bendRelease
pb - preBend
pbr - preBendRelease
brb - bendReleaseBend
\n/ - tremolo bar dip
\n - tremolo bar dive
-/n - tremolo bar Release up
/n\ - tremolo bar inverted dip
/n - tremolo bar return
-\n - tremolo bar Release down
S - shift slide
s - legato slide
/ -  slide into from below or out of upwards
\ -  slide into from above or out of downwards
~ - vibrato
W - wide vibrato
tr - trill
TP - tremolo picking
T - tapping
S - slap
P - pop
< - fade in
^ - brush up
v - brush down





Comments


Popular Red Hot Chili Peppers tabs & chords
Blackeyed Blonde 2 Bass Tabs
By The Way 3 Bass Tabs
Dont Forget Me 3 Bass Tabs
Subway To Venus 2 Bass Tabs
Transcending 2 Bass Tabs
Tear Correct Chords
Californication 2 Tabs
Fortune Faded Intro Tabs
Sickamickanico Tabs
Dani California Ukulele


Song lyrics



↑ Back to top | Tablatures and chords are parodies/interpretations of the original songs. You may use it for private study, scholarship, research or language learning purposes only
© 2014 AZChords.com Contact us | Privacy policy | DMCA | Add/correct tabs | Request tabs | Top 50 tabs