» » »

Desecration Smile Tabs (ver.2)

Artists:  A B C D E F G H I J K L M N O P Q R S T U V W X Y Z # 

Desecration Smile Tabs (ver.2)

Red Hot Chili Peppers
Rating:
0/5 (0 votes)

Hard to play? Try these video lessons and learn fast.
                Desecration Smile - Red Hot Chili Peppers

This is one of the new songs from the Chilis new album Stadium Arcadium
its called Desecration Smile.

| /  slide up
| \  slide down
| h  hammer-on
| p  pull-off
| ~  vibrato
| +  harmonic
| x  Mute note

Tuning:Standard

Note I have not tabbed out the timing of the chords, 
you will have to listen to the song to 
get the right rythm and right amount of times to play certain chords

Intro
      C#m                      E
e|----4-4-4-4-4-4-4-4-4-4-4----0-0-0-0-0-0-0-0-0-2-2-0-0-----|
B|----5-5-5-5-5-5-5-5-5-5-5----0-0-0-0-0-0-0-0-0-0-0-0-0-----|
G|----6-6-6-6-6-6-6-6-6-6-6----1-1-1-1-1-1-1-1-1-1-1-1-1-----|  x2
D|----6-6-6-6-6-6-6-6-6-6-6----2-2-2-2-2-2-2-2-2-2-2-2-2-----|
A|----4-4-4-4-4-4-4-4-4-4-4----2-2-2-2-2-2-2-2-2-2-2-2-2-----|
E|-----------------------------0-0-0-0-0-0-0-0-0-0-0-0-0-----|

Verse
    Em          D       C                Em
e|--0-0-0-0-0---2-2-2---0-0-0-0----|--|--0-0-0-0--|
B|--0-0-0-0-0---3-3-3---1-1-1-1----|--|--0-0-0-0--|
G|--0-0-0-0-0---2-2-2---0-0-0-0----|x8|--0-0-0-0--| play this Em on the end,
D|--2-2-2-2-2---0-0-0---2-2-2-2----|--|--2-2-2-2--| to lead into the chorus
A|--2-2-2-2-2---0-0-0---3-3-3-3----|--|--2-2-2-2--| 
E|--0-0-0-0-0----------------------|--|--0-0-0-0--|

Chorus
    D       A     E                   D       A     E
e|--2-2-2---0-0---0-0-0-0-0-0-0-0--|--2-2-2---0-0---0-0-0-0-0-0-0-0--|
B|--3-3-3---2-2---0-0-0-0-0-0-0-0--|--3-3-3---2-2---0-0-0-0-0-0-0-0--|
G|--2-2-2---2-2---1-1-1-1-1-1-1-1--|--2-2-2---2-2---1-1-1-1-1-1-1-1--|
D|--0-0-0---2-2---2-2-2-2-2-2-2-2--|--0-0-0---2-2---2-2-2-2-2-2-2-2--|
A|--0-0-0---0-0---2-2-2-2-2-2-2-2--|--0-0-0---0-0---2-2-2-2-2-2-2-2--|
E|----------------0-0-0-0-0-0-0-0--|----------------0-0-0-0-0-0-0-0--|

    D       A     E                   D            A
e|--2-2-2---0-0---0-0-0-0-0-0-0-0--|--2-2-2-2-2-2--0-0-0-0--|
B|--3-3-3---2-2---1-1-1-1-1-1-1-1--|--3-3-3-3-3-3--2-2-2-2--|
G|--2-2-2---2-2---2-2-2-2-2-2-2-2--|--2-2-2-2-2-2--2-2-2-2--|
D|--0-0-0---2-2---2-2-2-2-2-2-2-2--|--0-0-0-0-0-0--2-2-2-2--|
A|--0-0-0---0-0---0-0-0-0-0-0-0-0--|--0-0-0-0-0-0--0-0-0-0--|
E|----------------0-0-0-0-0-0-0-0--|------------------------|

Fill
e|---------------------|
B|-------------10-8----|
G|--------7-9----------|
D|---7/9---------------|
A|---------------------|
E|---------------------|

Verse2
    Em          D       C                Em
e|--0-0-0-0-0---2-2-2---0-0-0-0----|--|--0-0-0-0--|
B|--0-0-0-0-0---3-3-3---1-1-1-1----|--|--0-0-0-0--|
G|--0-0-0-0-0---2-2-2---0-0-0-0----|x8|--0-0-0-0--| play this Em on the end,
D|--2-2-2-2-2---0-0-0---2-2-2-2----|--|--2-2-2-2--| to lead into the chorus
A|--2-2-2-2-2---0-0-0---3-3-3-3----|--|--2-2-2-2--| 
E|--0-0-0-0-0----------------------|--|--0-0-0-0--|
 |                                 |                 
 |  Harmony Riff                   |  
e|---------------------------------|
B|--12~~~~------10~~~~--8~~~~~~~~--|
G|--9~~~~~------7~~~~~-------------|
D|----------------------10~~~~~~~--|
A|---------------------------------|
E|---------------------------------|



Chorus2
    D       A     E                   D       A     E
e|--2-2-2---0-0---0-0-0-0-0-0-0-0--|--2-2-2---0-0---0-0-0-0-0-0-0-0--|
B|--3-3-3---2-2---0-0-0-0-0-0-0-0--|--3-3-3---2-2---0-0-0-0-0-0-0-0--|
G|--2-2-2---2-2---1-1-1-1-1-1-1-1--|--2-2-2---2-2---1-1-1-1-1-1-1-1--|
D|--0-0-0---2-2---2-2-2-2-2-2-2-2--|--0-0-0---2-2---2-2-2-2-2-2-2-2--|
A|--0-0-0---0-0---2-2-2-2-2-2-2-2--|--0-0-0---0-0---2-2-2-2-2-2-2-2--|
E|----------------0-0-0-0-0-0-0-0--|----------------0-0-0-0-0-0-0-0--|

    D       A     E                   D            A
e|--2-2-2---0-0---0-0-0-0-0-0-0-0--|--2-2-2-2-2-2--0-0-0-0--|
B|--3-3-3---2-2---1-1-1-1-1-1-1-1--|--3-3-3-3-3-3--2-2-2-2--|
G|--2-2-2---2-2---2-2-2-2-2-2-2-2--|--2-2-2-2-2-2--2-2-2-2--|
D|--0-0-0---2-2---2-2-2-2-2-2-2-2--|--0-0-0-0-0-0--2-2-2-2--|
A|--0-0-0---0-0---0-0-0-0-0-0-0-0--|--0-0-0-0-0-0--0-0-0-0--|
E|----------------0-0-0-0-0-0-0-0--|------------------------|



Solo
e|---------------------|
B|--15b(17)-bd--15--12-|
G|---------------------| x6
D|---------------------|
A|---------------------|
E|---------------------|

e|---------------------|
B|---12b(13) 12b^^^----|
G|---------------------| John uses and effect to make the pitch
D|---------------------| continue to rise.
A|---------------------|
E|---------------------|

Solo Chords

    C         G       E
e|--0-0-0-0---3-3-3---0-0-0-0-0-0--|
B|--1-1-1-1---0-0-0---0-0-0-0-0-0--|
G|--0-0-0-0---0-0-0---1-1-1-1-1-1--|
D|--2-2-2-2---0-0-0---2-2-2-2-2-2--|
A|--3-3-3-3---2-2-2---2-2-2-2-2-2--|
E|------------3-3-3---0-0-0-0-0-0--|


Verse
    Em          D       C                Em
e|--0-0-0-0-0---2-2-2---0-0-0-0----|--|--0-0-0-0--|
B|--0-0-0-0-0---3-3-3---1-1-1-1----|--|--0-0-0-0--|
G|--0-0-0-0-0---2-2-2---0-0-0-0----|x8|--0-0-0-0--| play this Em on the end,
D|--2-2-2-2-2---0-0-0---2-2-2-2----|--|--2-2-2-2--| to lead into the chorus
A|--2-2-2-2-2---0-0-0---3-3-3-3----|--|--2-2-2-2--| 
E|--0-0-0-0-0----------------------|--|--0-0-0-0--|


Chorus3
    D       A     E                   D       A     E
e|--2-2-2---0-0---0-0-0-0-0-0-0-0--|--2-2-2---0-0---0-0-0-0-0-0-0-0--|
B|--3-3-3---2-2---0-0-0-0-0-0-0-0--|--3-3-3---2-2---0-0-0-0-0-0-0-0--|
G|--2-2-2---2-2---1-1-1-1-1-1-1-1--|--2-2-2---2-2---1-1-1-1-1-1-1-1--|
D|--0-0-0---2-2---2-2-2-2-2-2-2-2--|--0-0-0---2-2---2-2-2-2-2-2-2-2--|
A|--0-0-0---0-0---2-2-2-2-2-2-2-2--|--0-0-0---0-0---2-2-2-2-2-2-2-2--|
E|----------------0-0-0-0-0-0-0-0--|----------------0-0-0-0-0-0-0-0--|

    D       A     E                   D            A
e|--2-2-2---0-0---0-0-0-0-0-0-0-0--|--2-2-2-2-2-2--0-0-0-0--|
B|--3-3-3---2-2---1-1-1-1-1-1-1-1--|--3-3-3-3-3-3--2-2-2-2--|
G|--2-2-2---2-2---2-2-2-2-2-2-2-2--|--2-2-2-2-2-2--2-2-2-2--|
D|--0-0-0---2-2---2-2-2-2-2-2-2-2--|--0-0-0-0-0-0--2-2-2-2--|
A|--0-0-0---0-0---0-0-0-0-0-0-0-0--|--0-0-0-0-0-0--0-0-0-0--|
E|----------------0-0-0-0-0-0-0-0--|------------------------|

    D       A     E                   D       A     E
e|--2-2-2---0-0---0-0-0-0-0-0-0-0--|--2-2-2---0-0---0-0-0-0-0-0-0-0--|
B|--3-3-3---2-2---0-0-0-0-0-0-0-0--|--3-3-3---2-2---0-0-0-0-0-0-0-0--|
G|--2-2-2---2-2---1-1-1-1-1-1-1-1--|--2-2-2---2-2---1-1-1-1-1-1-1-1--|
D|--0-0-0---2-2---2-2-2-2-2-2-2-2--|--0-0-0---2-2---2-2-2-2-2-2-2-2--|
A|--0-0-0---0-0---2-2-2-2-2-2-2-2--|--0-0-0---0-0---2-2-2-2-2-2-2-2--|
E|----------------0-0-0-0-0-0-0-0--|----------------0-0-0-0-0-0-0-0--|

    D       A     E                   D            A
e|--2-2-2---0-0---0-0-0-0-0-0-0-0--|--2-2-2-2-2-2--0-0-0-0--|
B|--3-3-3---2-2---1-1-1-1-1-1-1-1--|--3-3-3-3-3-3--2-2-2-2--|
G|--2-2-2---2-2---2-2-2-2-2-2-2-2--|--2-2-2-2-2-2--2-2-2-2--|
D|--0-0-0---2-2---2-2-2-2-2-2-2-2--|--0-0-0-0-0-0--2-2-2-2--|
A|--0-0-0---0-0---0-0-0-0-0-0-0-0--|--0-0-0-0-0-0--0-0-0-0--|
E|----------------0-0-0-0-0-0-0-0--|------------------------|

Outro
      C#m                      E
e|----4-4-4-4-4-4-4-4-4-4-4----0-0-0-0-0-0-0-0-0-2-2-0-0-----|
B|----5-5-5-5-5-5-5-5-5-5-5----0-0-0-0-0-0-0-0-0-0-0-0-0-----|
G|----6-6-6-6-6-6-6-6-6-6-6----1-1-1-1-1-1-1-1-1-1-1-1-1-----|  x2
D|----6-6-6-6-6-6-6-6-6-6-6----2-2-2-2-2-2-2-2-2-2-2-2-2-----|
A|----4-4-4-4-4-4-4-4-4-4-4----2-2-2-2-2-2-2-2-2-2-2-2-2-----|
E|-----------------------------0-0-0-0-0-0-0-0-0-0-0-0-0-----|


And thats it! Any corrections let me know!
            
Hard to play? Try these video lessons and learn fast. | Correct




comments powered by Disqus
↑ Back to top | Tablatures and chords are parodies/interpretations of the original songs. You may use it for private study, scholarship, research or language learning purposes only