» » »

Backwoods Bass tabs (ver.3)

Artists:  A B C D E F G H I J K L M N O P Q R S T U V W X Y Z # 

Backwoods Bass tabs (ver.3)

Red Hot Chili Peppers
Rating:
0/5 (0 votes)

Tabs too difficult? Try these video lessons and learn fast.
                slapslappopslap, and I just chucked it up on here without checking. Then I got a 1* fair 
so I redid it.

a huge help....

Heres the revised version...

INTRO

G|----------------|----------------|----------------|----------------|
D|----------------|----------------|----------------|----------------|
A|----------------|----------------|----------------|----------------|
E|----------------|----------------|----------------|----------------|
   1 + 2 + 3 + 4 +  1 + 2 + 3 + 4 +  1 + 2 + 3 + 4 +  1 + 2 + 3 + 4 +

G|---------------------------------|---------------------------------|
D|-------4---2---4---4-----2---4---|-------4---2---4---4-----2---4---|
A|---------------------------------|---------------------------------|
E|-2---X---X---X---X---X-X---X-----|-2---X---X---X---X---X-X---X-----|
   1 + + + 2 + + + 3 + + + 4 + + +   1 + + + 2 + + + 3 + + + 4 + + +
   T   T P T P T P T P T T P T P     T   T P T P T P T P T T P T P

G|---------------------------------|---------------------------------|
D|-------4---2---4---4-----2---4---|-------4---2---4---4-----2---4---|
A|---------------------------------|---------------------------------|
E|-2---X---X---X---X---X-X---X-----|-2---X---X---X---X---X-X---X-----|
   1 + + + 2 + + + 3 + + + 4 + + +   1 + + + 2 + + + 3 + + + 4 + + +
   T   T P T P T P T P T T P T P     T   T P T P T P T P T T P T P

VERSE

G|---------------------------------|---------------------------------|
D|-------4---2---4---4-----2---4---|-------4---2---4---4-----2---4---|
A|---------------------------------|---------------------------------|
E|-2---X---X---X---X---X-X---X-----|-2---X---X---X---X---X-X---X-----|
   1 + + + 2 + + + 3 + + + 4 + + +   1 + + + 2 + + + 3 + + + 4 + + +
   T   T P T P T P T P T T P T P     T   T P T P T P T P T T P T P

G|---------------------------------|---------------------------------|
D|-------4---2---4---4-----2---4---|-------4---2---4---4-----2---4---|
A|---------------------------------|---------------------------------|
E|-2---X---X---X---X---X-X---X-----|-2---X---X---X---X---X-X---X-----|
   1 + + + 2 + + + 3 + + + 4 + + +   1 + + + 2 + + + 3 + + + 4 + + +
   T   T P T P T P T P T T P T P     T   T P T P T P T P T T P T P

G|---------------------------------|---------------------------------|
D|-------4---2---4---4-----2---4---|-------4---2---4---4-----2---4---|
A|---------------------------------|---------------------------------|
E|-2---X---X---X---X---X-X---X-----|-2---X---X---X---X---X-X---X-----|
   1 + + + 2 + + + 3 + + + 4 + + +   1 + + + 2 + + + 3 + + + 4 + + +
   T   T P T P T P T P T T P T P     T   T P T P T P T P T T P T P

G|---------------------------------|---------------------------------|
D|-------4---2---4---4-----2---4---|-------4---2---4---4-----2---4---|
A|---------------------------------|---------------------------------|
E|-2---X---X---X---X---X-X---X-----|-2---X---X---X---X---X-X---X-----|
   1 + + + 2 + + + 3 + + + 4 + + +   1 + + + 2 + + + 3 + + + 4 + + +
   T   T P T P T P T P T T P T P     T   T P T P T P T P T T P T P

CHORUS

G|---------------------------------|---------------------------------|
D|---4-------2-------7---7---9-----|---4-------2-------7---7---9-----|
A|---------------------------------|---------------------------------|
E|-2---2---0---0---5---5---7---7---|-2---2---0---0---5---5---7---7---|
   1 + + + 2 + + + 3 + + + 4 + + +   1 + + + 2 + + + 3 + + + 4 + + +
   T P T   T P T   T P T P T P T     T P T   T P T   T P T P T P T

G|---------------------------------|---------------------------------|
D|---4-------2-------7---7---9-----|---4-------2-------7---7---9-----|
A|---------------------------------|---------------------------------|
E|-2---2---0---0---5---5---7---7---|-2---2---0---0---5---5---7---7---|
   1 + + + 2 + + + 3 + + + 4 + + +   1 + + + 2 + + + 3 + + + 4 + + +
   T P T   T P T   T P T P T P T     T P T   T P T   T P T P T P T


VERSE

G|---------------------------------|---------------------------------|
D|-------4---2---4---4-----2---4---|-------4---2---4---4-----2---4---|
A|---------------------------------|---------------------------------|
E|-2---X---X---X---X---X-X---X-----|-2---X---X---X---X---X-X---X-----|
   1 + + + 2 + + + 3 + + + 4 + + +   1 + + + 2 + + + 3 + + + 4 + + +
   T   T P T P T P T P T T P T P     T   T P T P T P T P T T P T P

G|---------------------------------|---------------------------------|
D|-------4---2---4---4-----2---4---|-------4---2---4---4-----2---4---|
A|---------------------------------|---------------------------------|
E|-2---X---X---X---X---X-X---X-----|-2---X---X---X---X---X-X---X-----|
   1 + + + 2 + + + 3 + + + 4 + + +   1 + + + 2 + + + 3 + + + 4 + + +
   T   T P T P T P T P T T P T P     T   T P T P T P T P T T P T P

G|---------------------------------|---------------------------------|
D|-------4---2---4---4-----2---4---|-------4---2---4---4-----2---4---|
A|---------------------------------|---------------------------------|
E|-2---X---X---X---X---X-X---X-----|-2---X---X---X---X---X-X---X-----|
   1 + + + 2 + + + 3 + + + 4 + + +   1 + + + 2 + + + 3 + + + 4 + + +
   T   T P T P T P T P T T P T P     T   T P T P T P T P T T P T P

G|---------------------------------|---------------------------------|
D|-------4---2---4---4-----2---4---|-------4---2---4---4-----2---4---|
A|---------------------------------|---------------------------------|
E|-2---X---X---X---X---X-X---X-----|-2---X---X---X---X---X-X---X-----|
   1 + + + 2 + + + 3 + + + 4 + + +   1 + + + 2 + + + 3 + + + 4 + + +
   T   T P T P T P T P T T P T P     T   T P T P T P T P T T P T P


CHORUS

G|---------------------------------|---------------------------------|
D|---4-------2-------7---7---9-----|---4-------2-------7---7---9-----|
A|---------------------------------|---------------------------------|
E|-2---2---0---0---5---5---7---7---|-2---2---0---0---5---5---7---7---|
   1 + + + 2 + + + 3 + + + 4 + + +   1 + + + 2 + + + 3 + + + 4 + + +
   T P T   T P T   T P T P T P T     T P T   T P T   T P T P T P T

G|---------------------------------|---------------------------------|
D|---4-------2-------7---7---9-----|---4-------2-------7---7---9-----|
A|---------------------------------|---------------------------------|
E|-2---2---0---0---5---5---7---7---|-2---2---0---0---5---5---7---7---|
   1 + + + 2 + + + 3 + + + 4 + + +   1 + + + 2 + + + 3 + + + 4 + + +
   T P T   T P T   T P T P T P T     T P T   T P T   T P T P T P T

INTERLUDE

G|---------------------------------|---------------------------------|
D|---------------------------------|---------------------------------|
A|---------------------------------|---------------------------------|
E|-5h7-5h7-5h7-5h7-5h7-5h7-5h7-5h7-|-5h7-5h7-5h7-5h7-5h7-5h7-5h7-5h7-|
   1 + + + 2 + + + 3 + + + 4 + + +   1 + + + 2 + + + 3 + + + 4 + + +
   T   T   T   T   T   T   T   T     T   T   T   T   T   T   T   T

G|---------------------------------|---------------------------------|
D|---------------------------------|---------------------------------|
A|---------------------------------|---------------------------------|
E|-5h7-5h7-5h7-5h7-5h7-5h7-5h7-5h7-|-5h7-5h7-5h7-5h7-5h7-5h7-5h7-5h7-|
   1 + + + 2 + + + 3 + + + 4 + + +   1 + + + 2 + + + 3 + + + 4 + + +
   T   T   T   T   T   T   T   T     T   T   T   T   T   T   T   T

CHORUS

G|---------------------------------|---------------------------------|
D|---4-------2-------7---7---9-----|---4-------2-------7---7---9-----|
A|---------------------------------|---------------------------------|
E|-2---2---0---0---5---5---7---7---|-2---2---0---0---5---5---7---7---|
   1 + + + 2 + + + 3 + + + 4 + + +   1 + + + 2 + + + 3 + + + 4 + + +
   T P T   T P T   T P T P T P T     T P T   T P T   T P T P T P T

G|---------------------------------|---------------------------------|
D|---4-------2-------7---7---9-----|---4-------2-------7---7---9-----|
A|---------------------------------|---------------------------------|
E|-2---2---0---0---5---5---7---7---|-2---2---0---0---5---5---7---7---|
   1 + + + 2 + + + 3 + + + 4 + + +   1 + + + 2 + + + 3 + + + 4 + + +
   T P T   T P T   T P T P T P T     T P T   T P T   T P T P T P T

GUITAR SOLO

G|-----------------|
D|-----------------|
A|-----------------|
E|-2---------------|
   1 + 2 + 3 + 4 +
   T

G|---------------------------------|---------------------------------|
D|-------9---7---9---9-----7---9---|-------9---7---9---9-----7---9---|
A|---------------------------------|---------------------------------|
E|-7---X---X---X---X---X-X---X-----|-7---X---X---X---X---X-X---X-----|
   1 + + + 2 + + + 3 + + + 4 + + +   1 + + + 2 + + + 3 + + + 4 + + +
   T   T P T P T P T P T T P T P     T   T P T P T P T P T T P T P

G|---------------------------------|---------------------------------|
D|-------9---7---9---9-----7---9---|-------9---7---9---9-------8-----|
A|---------------------------------|---------------------------------|
E|-7---X---X---X---X---X-X---X-----|-7---X---X---X---7---7---6---6---|
   1 + + + 2 + + + 3 + + + 4 + + +   1 + + + 2 + + + 3 + + + 4 + + +
   T   T P T P T P T P T T P T P     T   T P T P T P T P T   T P T

G|---------------------------------|---------------------------------|
D|-------7---5---7---7-----5---7---|-------7---5---7---7-----5---7---|
A|---------------------------------|---------------------------------|
E|-5---X---X---X---X---X-X---X-----|-5---X---X---X---X---X-X---X-----|
   1 + + + 2 + + + 3 + + + 4 + + +   1 + + + 2 + + + 3 + + + 4 + + +
   T   T P T P T P T P T T P T P     T   T P T P T P T P T T P T P

G|---------------------------------|---------------------------------|
D|-------4---2---4---4-----2---4---|-------4---2---4---4-----2---4---|
A|---------------------------------|---------------------------------|
E|-2---X---X---X---X---X-X---X-----|-2---X---X---X---X---X-X---X-----|
   1 + + + 2 + + + 3 + + + 4 + + +   1 + + + 2 + + + 3 + + + 4 + + +
   T   T P T P T P T P T T P T P     T   T P T P T P T P T T P T P

G|---------------------------------|-------------------------7^------|
D|-------7---5---7---7-----5---7---|-------9---X-------7-------------|
A|---------------------------------|-------------7h9-----------------|
E|-5---X---X---X---X---X-X---X-----|-7---X---X-------X---X-X---------|
   1 + + + 2 + + + 3 + + + 4 + + +   1 + + + 2 + + + 3 + + + 4 + + +
   T   T P T P T P T P T T P T P     T   T P T P T   T P T T P

INTERLUDE

G|---------------------------------|---------------------------------|
D|---------------------------------|---------------------------------|
A|---------------------------------|---------------------------------|
E|-2---X-2---2---2---2---X-2---2---|-2---X-2---2---2---2---X-2---2---|
   1 + + + 2 + + + 3 + + + 4 + + +   1 + + + 2 + + + 3 + + + 4 + + +
   T   T P T P T P T P T T P T P     T   T P T P T P T P T T P T P

G|---------------------------------|---------------------------------|
D|---------------------------------|---------------------------------|
A|---------------------------------|---------------------------------|
E|-2---X-2---2---2---2---X-2---2---|-2---X-2---2---2---2---X-2---2---|
   1 + + + 2 + + + 3 + + + 4 + + +   1 + + + 2 + + + 3 + + + 4 + + +
   T   T P T P T P T P T T P T P     T   T P T P T P T P T T P T P

G|---------------------------------|---------------------------------|
D|-------4---2---4---4-----2---4---|-------4---2---4---4-----2---4---|
A|---------------------------------|---------------------------------|
E|-2---X---X---X---X---X-X---X-----|-2---X---X---X---X---X-X---X-----|
   1 + + + 2 + + + 3 + + + 4 + + +   1 + + + 2 + + + 3 + + + 4 + + +
   T   T P T P T P T P T T P T P     T   T P T P T P T P T T P T P

G|---------------------------------|-------------4/5---4/5---4/5-----|
D|-------4---2---4---4-----2---4---|-------4-------------------------|
A|---------------------------------|---------------------------------|
E|-2---X---X---X---X---X-X---X-----|-2---X---X-X-----X-----X---------|
   1 + + + 2 + + + 3 + + + 4 + + +   1 + + + 2 + + + 3 + + + 4 + + +
   T   T P T P T P T P T T P T P     T   T P T T P   T P   T P

G|---------------------------------|---------------------------------|
D|-------4---2---4---4-----2---4---|-------4---2---4---4-----2---4---|
A|---------------------------------|---------------------------------|
E|-2---X---X---X---X---X-X---X-----|-2---X---X---X---X---X-X---X-----|
   1 + + + 2 + + + 3 + + + 4 + + +   1 + + + 2 + + + 3 + + + 4 + + +
   T   T P T P T P T P T T P T P     T   T P T P T P T P T T P T P

G|---------------------------------|---------------------------------|
D|-------4---2---4---4-----2-------|-------------1h2---4-------4-----|
A|---------------------------------|-------4-------------0---0-------|
E|-2---X---X---X---X---X-X-----0---|-1///4---X-X-----X-----------4\--|
   1 + + + 2 + + + 3 + + + 4 + + +   1 + + + 2 + + + 3 + + + 4 + + +
   T   T P T P T P T P T T P   T     T   T P T T P   T P T   T P T

G|---------------------------------|-------------------1h2-----------|
D|-------4---2---4---4-----2---4---|-------4---2---4-----------2-----|
A|---------------------------------|---------------------0-----------|
E|-2---X---X---X---X---X-X---X-----|-2---X---X---X---X-------X---0---|
   1 + + + 2 + + + 3 + + + 4 + + +   1 + + + 2 + + + 3 + + + 4 + + +
   T   T P T P T P T P T T P T P     T   T P T P T P T P T   T P T

G|---------------------------------|---------------------------------|
D|-------4---2---4---4-----2---4---|-------4---2---4---4-----2---4---|
A|---------------------------------|---------------------------------|
E|-2---X---X---X---X---X-X---X-----|-2---X---X---X---X---X-X---X-----|
   1 + + + 2 + + + 3 + + + 4 + + +   1 + + + 2 + + + 3 + + + 4 + + +
   T   T P T P T P T P T T P T P     T   T P T P T P T P T T P T P

G|---------------------------------|---------------------------------|
D|-------4---2---4---4-----2---4---|-------4---2---------------------|
A|---------------------------------|---------------6-7---6---4---2---|
E|-2---X---X---X---X---X-X---X-----|-2---X---X-----------------------|
   1 + + + 2 + + + 3 + + + 4 + + +   1 + + + 2 + + + 3 + + + 4 + + +
   T   T P T P T P T P T T P T P     T   T P T P   T T   T   T   T

G|---------------------------------|---------------------------------|
D|-------4---2---4---4-----2---4---|-------4---2---4---4-----2---4---|
A|---------------------------------|---------------------------------|
E|-2---X---X---X---X---X-X---X-----|-2---X---X---X---X---X-X---X-----|
   1 + + + 2 + + + 3 + + + 4 + + +   1 + + + 2 + + + 3 + + + 4 + + +
   T   T P T P T P T P T T P T P     T   T P T P T P T P T T P T P

G|---------------------------------|---------------------------------|
D|-------4---2---4---4-----2---4---|-------4---2---4---4-----2---4---|
A|---------------------------------|---------------------------------|
E|-2---X---X---X---X---X-X---X-----|-2---X---X---X---X---X-X---X-----|
   1 + + + 2 + + + 3 + + + 4 + + +   1 + + + 2 + + + 3 + + + 4 + + +
   T   T P T P T P T P T T P T P     T   T P T P T P T P T T P T P

G|---------------------------------|---------------------------------|
D|-------4---2---4---4-----2---4---|-------4---2---4---4-----2---4---|
A|---------------------------------|---------------------------------|
E|-2---X---X---X---X---X-X---X-----|-2---X---X---X---X---X-X---X-----|
   1 + + + 2 + + + 3 + + + 4 + + +   1 + + + 2 + + + 3 + + + 4 + + +
   T   T P T P T P T P T T P T P     T   T P T P T P T P T T P T P

G|---------------------------------|
D|-------4---2---4---4-----2---4---|
A|---------------------------------|
E|-2---X---X---X---X---X-X---X-----|
   1 + + + 2 + + + 3 + + + 4 + + +
   T   T P T P T P T P T T P T P

CHORUS

G|---------------------------------|---------------------------------|
D|---4-------2-------7---7---9-----|---4-------2-------7---7---9-----|
A|---------------------------------|---------------------------------|
E|-2---2---0---0---5---5---7---7---|-2---2---0---0---5---5---7---7---|
   1 + + + 2 + + + 3 + + + 4 + + +   1 + + + 2 + + + 3 + + + 4 + + +
   T P T   T P T   T P T P T P T     T P T   T P T   T P T P T P T

G|---------------------------------|---------------------------------|
D|---4-------2-------7---7---9-----|---4-------2-------7---7---9-----|
A|---------------------------------|---------------------------------|
E|-2---2---0---0---5---5---7---7---|-2---2---0---0---5---5---7---7---|
   1 + + + 2 + + + 3 + + + 4 + + +   1 + + + 2 + + + 3 + + + 4 + + +
   T P T   T P T   T P T P T P T     T P T   T P T   T P T P T P T


G|---------------------------------|---------------------------------|
D|---4-------2-------7---7---9-----|---4-------2-------7---7---9-----|
A|---------------------------------|---------------------------------|
E|-2---2---0---0---5---5---7---7---|-2---2---0---0---5---5---7---7---|
   1 + + + 2 + + + 3 + + + 4 + + +   1 + + + 2 + + + 3 + + + 4 + + +
   T P T   T P T   T P T P T P T     T P T   T P T   T P T P T P T

G|---------------------------------|---------------------------------|
D|---4-------2-------7---7---9-----|---4-------2-------7---7---9-----|
A|---------------------------------|---------------------------------|
E|-2---2---0---0---5---5---7---7---|-2---2---0---0---5---5---7---7---|
   1 + + + 2 + + + 3 + + + 4 + + +   1 + + + 2 + + + 3 + + + 4 + + +
   T P T   T P T   T P T P T P T     T P T   T P T   T P T P T P T


G|---------------------------------||
D|---------------------------------||
A|---------------------------------||
E|-2-2-2-2---2---------------------||
   1 + + + 2 + + + 3 + + + 4 + + +
   T T T T   T
            
Tabs too difficult? Try these video lessons and learn fast.




comments powered by Disqus
↑ Back to top | Tablatures and chords are parodies/interpretations of the original songs. You may use it for private study, scholarship, research or language learning purposes only