» » »

Red Hot Chili Peppers, Backwoods Tabs (ver.2)

Artists:  A B C D E F G H I J K L M N O P Q R S T U V W X Y Z # 

Backwoods Tabs (ver.2)

Red Hot Chili Peppers Tabs
 Rating:
4/5 (4 votes)
Backwoods lessons Tabs too difficult? Try these video lessons and learn fast
1
                Tuning: EADGBE
	Intro/verse- quiet fuzz distortion. Listen to it to get the rhythm
e|---------------------------------------------------------------------------|
B|---------------------------------------------------------------------------|
G|---------------------------------------------------------------------------|
D|--4-x-4-4-4-4-xx-4-4-------------------------------------------------------|
A|--4-x-4-4-4-4-xx-4-4-------------------------------------------------------|
E|--2-x-2-2-2-2-xx-2-2-------------------------------------------------------|
	Chorus- I think this is pretty much right
e|---------------------------------------------------------------------------|
B|----------------10-10-9-xx-10-12-12----------------------------------------|
G|---------2-4-----9--9-9-xx--9-11-11----------------------------------------|
D|-4-4-2-2-2-4---------------------------------------------------------------|
A|-4-4-2-2-0-2---------------------------------------------------------------|
E|-2-2-0-0-------------------------------------------------------------------|
	Interlude bit                                                 then
e|---------------------------------------------------------------------------|
B|-----------------------------------------------------------------------/19-|
G|---------------------------------------------------------------------------|
D|------------------------------------------------------------------x2-------|
A|-0h2-0h2-0h2-0h2-0h2-0h2-0h2-0h2-0h2-0h2-0h2-0h2-0h2-0h2-0h2-0h2-----------|
E|---------------------------------------------------------------------------|
	Solo- This is about right I think.  Might not be exact though
e|---------------------------------------------------------------------------|
B|--7--7—--8^--8^--8^--10^------------------------5--------------------------|
G|--9^-9^------------------------------5-5--------5-5------------------------|
D|-----------------------------------------7p5-7------7p5-7------------------|
A|---------------------------------------------------------------------------|
E|---------------------------------------------------------------------------|

e|---------------------------------------------------------------------------|
B|--------------------5---------------------------------------5^~------------|
G|----------5---5-7-7^--7r-5-7p5--------------------5---------5^~------------|
D|--5---5h7---7------------------7---------5---5-7^---7-5h7------------------|
A|----7------------------------------7p5h7---7-------------------------------|
E|---------------------------------------------------------------------------|

e|---------------------------------------------------------------------------|
B|--8^^^---10^^^-------------------------------------------------------------|
G|---------------------------------------------------------------------------|
D|---------------------------------------------------------------------------|
A|------------------9~-------------------------------------------------------|
E|---------------------------------------------------------------------------|
	Outro
e|---------------------------------------------------------------------------|
B|---------------------------------------------------------------------------|
G|---------------------------------------------------------------------------|
D|-4-4-xx-4-4----------------------------------------------------------------|
A|-4-4-xx-4-4----------------------------------------------------------------|
E|-2-2-xx-2-2----------------------------------------------------------------





 /  slide up
 \  slide down
 h  hammer-on
 p  pull-off
 ~  vibrato
 +  harmonic
 x  Mute note
  ^    Bend
    r   Release Bend
            
Submit corrections

comments powered by Disqus
↑ Back to top | Red Hot Chili Peppers Tabs for Backwoods. Lyrics for acoustic guitar and electric guitar. 1 Tablatures and chords are parodies/interpretations of the original songs. You may use it for private study, scholarship, research or language learning purposes only