» » »

Red Hot Chili Peppers, Backwoods Bass tabs (ver.2)

Artists:  A B C D E F G H I J K L M N O P Q R S T U V W X Y Z # 

Backwoods Bass tabs (ver.2)

Red Hot Chili Peppers Tabs
 Rating:
4/5 (4 votes)
Backwoods lessons Tabs too difficult? Try these video lessons and learn fast
                Backwoods
Red Hot Chili Peppers
The Uplift Mofo Party Plan
E A D G

Slap The E string And Pop the a string on the verses chorus and solo and after solo
----------------------------------------------------------------------------
Verse

--------------------------|
-------4---2---4--4--2--4-|
--------------------------|
--2-x----x---x--x---x--x--|
  T T  P T P T P T PTP TP
----------------------------------------------------------------------------
Chrous

-----------------------------------|
------4--------2--------7----7---9-|
-----------------------------------|
--2-----2---0----0--5-----5----7---|

----------------------------------------------------------------------------
Verse

--------------------------|
-------4---2---4--4--2--4-|
--------------------------|
--2-x----x---x--x---x--x--|
  T T  P T P T P T PTP TP
----------------------------------------------------------------------------
Chrous

-----------------------------------------------------------------------------|
------4--------2--------7----7---9-------------------------------------------|
-----------------------------------------------------------------------------|
--2-----2---0----0--5-----5----7---------------------------------------------|
-----------------------------------------------------------------------------|
Interlude

-----
-----
--0h2{Do That as much times as needed
-----
----------------------------------------------------------------------------Chrous

-----------------------------------------------------------------------------|
------4--------2--------7----7---9-------------------------------------------|
-----------------------------------------------------------------------------|
--2-----2---0----0--5-----5----7---------------------------------------------|
-----------------------------------------------------------------------------|
Solo!

--------------------------|
----9---7---9---9---7---9-|
--------------------------|
--7---x---x---x---x---x---|

--------------------------|
----9---7---9---9---7---9-|
--------------------------|
--7---x---x---x---x---x---|

--------------------------|
----9---7---9---9---7---9-|
--------------------------|
--7---x---x---x---x---x---|

--------------------------|
----9---7---9---9---7---9-|
--------------------------|
--7---x---x---x---x---x---|

-------------------------|
----7---5---7---7---5--7-|
-------------------------|
--5---x---x---x---x--x---|

-------------------------|
----7---5---7---7---5--7-|
-------------------------|
--5---x---x---x---x--x---|

--------------------------|
-------4---2---4--4--2--4-|
--------------------------|
--2-x----x---x--x---x--x--|
  T T  P T P T P T PTP TP
--------------------------|
-------4---2---4--4--2--4-|
--------------------------|
--2-x----x---x--x---x--x--|
  T T  P T P T P T PTP TP

-------------------------|
----7---5---7---7---5--7-|
-------------------------|
--5---x---x---x---x--x---|

-----------------------------------------------------------------------------|
----9---7---9---9---7---9----------------------------------------------------|
-----------------------------------------------------------------------------|
--7---x---x---x---x---x------------------------------------------------------|
-----------------------------------------------------------------------------|
After Solo

----------------|
----------------|
----------------|
--2-2-2-2-2-222-|

----------------|
----------------|
----------------|
--2-2-2-2-2-222-|

----------------|
----------------|
----------------|
--2-2-2-2-2-222-|

----------------------------------------------------------------------------
The Mr Uplift Mofo Part

--------------------------|
-------4---2---4--4--2--4-|
--------------------------|
--2-x----x---x--x---x--x--|
  T T  P T P T P T PTP TP

----------------------------------------------------------------------------
Chrous

-----------------------------------|
------4--------2--------7----7---9-|
-----------------------------------|
--2-----2---0----0--5-----5----7---|

----------------------------------------------------------------------------
TAKE ME TO YOUR BACKWOODS

--------------|
--------------|
--------------|
--2--2--2-222-|
            
Submit corrections

comments powered by Disqus
↑ Back to top | Red Hot Chili Peppers Bass for Backwoods. Lyrics for acoustic guitar and electric guitar. Tablatures and chords are parodies/interpretations of the original songs. You may use it for private study, scholarship, research or language learning purposes only