» » »

3's & 7's Bass tabs (ver.1)

Artists:  A B C D E F G H I J K L M N O P Q R S T U V W X Y Z # 

3's & 7's Bass tabs (ver.1)

Queens Of The Stone Age
Rating:
3.6/5 (35 votes)

Hard to play? Try these video lessons and learn fast.
                Queens of the stone age - 3's and 7's

first tab. hope its good! enjoy

Intro:
G|---------------------------|---------------------------|
D|-----------6-6---6---------|----------6-6---6----------|
A|-----4---------6---8-----8-|----4---------6---8-----8--|
E|--6-----6-------------8----|-6-----6-------------8-----|


Verse:
G|---------------------------|---------------------------|
D|-----------6-6---6---------|----------6-6---6----------| 
A|-----4---------6---8-----8-|----4---------6---8-----8--| 
E|--6-----6-------------8----|-6-----6-------------8-----| x5


Chorus:

G|-------------|------------|------------|------------|
D|-------------|------------|------------|------------|
A|-------------|------------|------------|------------|
E|---0-0--2-2--|--4-4--0-0--|--0-0--2-2--|--2-2--4-4--| x2


Guitar solo - same as verse
Verse
Chorus


Bridge
G|------------|-----------|-----------|-----------|
D|------------|-----------|-----------|-----------|
A|------------|-----------|-----------|-----------|
E|--1--1-1--1-|-4--4-4--4-|-3--3-3--3-|-6--6-6--6-|

G|------------|-----------|-----------|-----------|
D|------------|-----------|-----------|-----------|
A|------------|-----------|-----------|-----------|
E|--5--5-5--5-|-8--8-8--8-|-9--9-9--9-|-6--6-6--6-| x4

G|------------|-----------|-------------|-------------|
D|------------|-----------|-------------|-------------|
A|------------|-----------|-------------|-------------|
E|--1--1-1--1-|-1--1-1--1-|-9-9-9-9-9-9-|-6-6-6-6-6-6-| x3


Bass Solo
G|---------------------------|---------------------------|
D|-----------6-6---6---------|----------6-6---6----------|
A|-----4---------6---8-----8-|----4---------6---8~\------|
E|--6-----6-------------8----|-6-----6-------------------|

Guitar solo - same as verse

end with
G|---------------------------|---------------------------|
D|-----------6-6---6---------|----------6-6---6----------|
A|-----4---------6---8-----8-|----4---------6---8--------| END
E|--6-----6-------------8----|-6-----6-------------------|
            
Hard to play? Try these video lessons and learn fast. | Correct




comments powered by Disqus
↑ Back to top | Tablatures and chords are parodies/interpretations of the original songs. You may use it for private study, scholarship, research or language learning purposes only