» » »

3's & 7's Bass tabs (ver.2)

Artists:  A B C D E F G H I J K L M N O P Q R S T U V W X Y Z # 

3's & 7's Bass tabs (ver.2)

Queens Of The Stone Age
Rating:
4/5 (4 votes)

Hard to play? Try these video lessons and learn fast.
                Queens Of The Stone Age 3s and 7s bass tab by damaster. My first one. I can't determine
at first because the bass is so drowned by the guitars and vocals, so i listen to the
hero track, and tab it out as good as i can. This tab maybe is slightly different than 
the 3's and 7's bass tab you will hear, but there you go.

Tuning: normal eadgbe

[00:00-00:08 guitar intro)

00:08 slide riff

G|--------------------------------------------|---------------------------------------------|
D|------------------6--6-----6----------------|-----------------6--6-----6------------------|
A|-------4----------------6------6h8--------8-|-------4---------------6-----6h8--------8----|
E|---6-------6---------------------------8----|---6-------6-------------------------8-------|

00:15 verse

lie, lie to my face...
tell me it ain't no thing that's what i wanna hear
G|--------------------------------------------|
D|------------------6--6-----6----------------| 3x
A|-------4----------------6------6h8--------8-|
E|---6-------6---------------------------8----|

G|--------------------------------------------|
D|------------------6--6-----6----------------|
A|-------4----------------6------6h8-----8----|
E|---6-------6------------------------------8-|

00:30

take, your lie to grave
that's what an old friend told me look what it did for him
G|--------------------------------------------|
D|------------------6--6-----6----------------| 3x
A|-------4----------------6------6h8--------8-|
E|---6-------6---------------------------8----|

G|--------------------------------------------|
D|------------------6--6-----6----------------|
A|-------4----------------6------6h8----------|
E|---6-------6---------------------------8--8-|

00:44 slide riff

G|--------------------------------------------|---------------------------------------------|
D|------------------6--6-----6----------------|-----------------6--6-----6------------------|
A|-------4----------------6------6h8--------8-|-------4---------------6-----6h8--------8----|
E|---6-------6---------------------------8----|---6-------6-------------------------8-------|

00:52 chorus + transition

truth hurts so bad wouldn't you say
so why tell it
if ignorance is bliss then i'm in
heaven now

(and btw, "22 means twice hit the second fret, not to hit the 22nd fret)
G|-------------------------------------------------|
D|-------------------------------------------------|  2x
A|-------------------------------------------------|
E|-00-0h2-22-2h4-44-4p0-00--00-0h2-22-0h2-22-2h4-44|

G|--------------------|
D|--------------------|
A|--------------------|
E|-1/5--3-5-3-5-3-3/0-|

1:08 guitar solo

G|--------------------------------------------|
D|------------------6--6-----6----------------| 2x
A|-------4----------------6------6h8--------8-|
E|---6-------6---------------------------8----|

1:16 verse

run, you'll never escape
you see you'll go nowhere
soon you will appear

G|--------------------------------------------|
D|------------------6--6-----6----------------| 3x
A|-------4----------------6------6h8--------8-|
E|---6-------6---------------------------8----|

G|------------------------------------------7-|
D|------------------6--6-----6-----------7----|
A|-------4----------------6------6h8----------|
E|---6-------6--------------------------------|

1:30

Broke, Laid to rest
Turn into sweet nothings
Kiss you goodbye


G|--------------------------------------------|
D|------------------6--6-----6----------------| 4x
A|-------4----------------6------6h8--------8-|
E|---6-------6---------------------------8----|

1:45 slide riff

G|--------------------------------------------|---------------------------------------------|
D|------------------6--6-----6----------------|-----------------6--6-----6------------------|
A|-------4----------------6------6h8--------8-|-------4---------------6-----6h8--------8----|
E|---6-------6---------------------------8----|---6-------6-------------------------8-------|

G|--------------------------------------------|---------------------------------------------|
D|------------------6--6-----6----------------|-----------------6--6-----6------------------|
A|-------4----------------6------6h8--------8-|-------4---------------6-----6h8-------------|
E|---6-------6---------------------------8----|---6-------6-------------------------8~------|

2:00 chorus + transition

truth hurts so bad wouldn't you say
so why tell it
if ignorance is bliss then i'm in
heaven now

G|-------------------------------------------------|
D|-------------------------------------------------|  2x
A|-------------------------------------------------|
E|-00-0h2-22-2h4-44-4p0-00--00-0h2-22-0h2-22-2h4-44|

G|-----------------------|
D|-----------------------|
A|-----------------------|
E|-1/5--33-5-33-5-33-3/0-|

2:17 "swing" part 1

I keep going over and over again
To never ending places I've never been
No one's catching on, calling my bluff
The devil made me holier than every man
What you do, say it with a smile boy
Making us all forget

G|-----------------------------------------------|
D|-----------------------------------------------| 4x
A|-----------------------------------------------|
E|-111-/444-\333-/666-\555-/888-/999999-\666666--|

2:47 "swing" part 2

Making us all forget
Making us all forget

G|-------------------|
D|-------------------| 2x
A|-------------------|
E|--999999-\666666---|

G|-------------------|
D|-------------------|
A|-------------------|
E|--666666-/999999---|


2:57 bass solo

G|--------------------------------------------|-------------------------------------|
D|------------------6--6-----6----------------|-----------------6--6-----6----------|
A|-------4----------------6------6h8--------8-|-------4---------------6-----6h8~-\0-|
E|---6-------6---------------------------8----|---6-------6-------------------------|

3:04 guitar outro

G|--------------------------------------------|
D|------------------6--6-----6----------------| 3x
A|-------4----------------6------6h8--------8-|
E|---6-------6---------------------------8----|

G|------------------------------------------7-|
D|------------------6--6-----6-----------7----|
A|-------4----------------6------6h8----------|
E|---6-------6--------------------------------|

G|--------------------------------------------|
D|------------------6--6-----6----------------| 3x
A|-------4----------------6------6h8--------8-|
E|---6-------6---------------------------8----|

G|--------------------------------------------|
D|------------------6--6-----6----------------|
A|-------4----------------6------6h8~-\0------|
E|---6-------6--------------------------------|


| /  slide up
| \  slide down
| h  hammer-on
| p  pull-off
| ~  vibrato
| +  harmonic
| x  Mute note
===============================================================================
            
Hard to play? Try these video lessons and learn fast. | Correct




comments powered by Disqus
↑ Back to top | Tablatures and chords are parodies/interpretations of the original songs. You may use it for private study, scholarship, research or language learning purposes only