>
 >
Go With The Fflow

Go With The Fflow Guitar Tabs

Queens Of The Stone Age - Go With The Fflow chords, tabs, tablatures, lyrics

Guitar lessons | Add/correct | Request | Top 50 tabs Artists:  A B C D E F G H I J K L M N O P Q R S T U V W X Y Z 0-9

Go With The Fflow Guitar Tabs – Queens Of The Stone Age

CD, Sheet music, Poster

Do you like Go With The Fflow? Share with your friends now
Tabs
Main Riff:
 C|---------------------------------------------------------------||
 G|---------------------------------------------------------------||
Eb|-----------------------------9-9-9-9-9-9-9-9--6-6-6-6-6-6-6-6--||
Bb|--6-6-6-6-6-6-6-6-6-6-6-6-6--9-9-9-9-9-9-9-9--6-6-6-6-6-6-6-6--||
 F|--6-6-6-6-6-6-6-6-6-6-6-6-6--7-7-7-7-7-7-7-7--4-4-4-4-4-4-4-4--||
 C|--4-4-4-4-4-4-4-4-4-4-4-4-4------------------------------------||


Chorus Riff:
 C|------------------------------------------------------------------||
 G|------------------------------------------------------------------||
Eb|--9-9-9-9-9-9-9-9-11-11-11-11-11-11-11-11-------------------------||
Bb|--9-9-9-9-9-9-9-9-11-11-11-11-11-11-11-11--6-6-6-6-6-6-6-6-6-6-6--||
 F|--7-7-7-7-7-7-7-7--9--9--9--9--9--9--9--9--6-6-6-6-6-6-6-6-6-6-6--||
 C|-------------------------------------------4-4-4-4-4-4-4-4-4-4-4--||


Outro:
 C|--------------------------------------------------------------------||
 G|--------------------------------------------------------------------||
Eb|--9-9-9-9-9-9-9-9-11-11-11-11-11-11-11-11--13-13-13-13-13-13-13-13--||
Bb|--9-9-9-9-9-9-9-9-11-11-11-11-11-11-11-11--13-13-13-13-13-13-13-13--||
 F|--7-7-7-7-7-7-7-7--9--9--9--9--9--9--9--9--11-11-11-11-11-11-11-11--||
 C|--------------------------------------------------------------------||


Lead Guitar.
Intro Lead:
 C|--------18-16----16-----------------------|
 G|--16-19-------------16----16-17-19-17-16--|
Eb|------------------------------------------|
Bb|------------------------------------------|
 F|------------------------------------------|
 C|------------------------------------------|

 C|--------18-18----16---22b--||
 G|--16-19--------------------||
Eb|---------------------------||
Bb|---------------------------||
 F|---------------------------||
 C|---------------------------||


 "She said "I'll throw myself away"
Lead:
 C|-------------------||
 G|--16-17-19--17-16--||
Eb|-------------------||
Bb|-------------------||
 F|-------------------||
 C|-------------------||


 "They're just photos after all"
 "I can't make you hang around"
Lead:
 C|--19---------19--||
 G|-------16--------||
Eb|-----------------||
Bb|-----------------||
 F|-----------------||
 C|-----------------||


 "I can't wash you off my skin"
 "Outside the frame, is what we're leaving out"
Lead:
 C|--17---14---16--||
 G|----------------||
Eb|----------------||
Bb|----------------||
 F|----------------||
 C|----------------||

 "You won't remember anyway"


Chorus Riff:
 "I can go with the flow"
 "But don't say it doesn't matter anymore"
 "I can go with the flow"


Chorus Lead: (3x)
 C|--16----14--------||
 G|--------------16--||
Eb|------------------||
Bb|------------------||
 F|------------------||
 C|------------------||


 "Do you believe it in your head?"
Lead:
 C|--16----14----20--||
 G|------------------||
Eb|------------------||
Bb|------------------||
 F|------------------||
 C|------------------||


 "It's so safe to play along"
Lead:
 C|--13-16-13-16-13--12---11---9--|
 G|-------------------------------|
Eb|-------------------------------|
Bb|-------------------------------|
 F|-------------------------------|
 C|-------------------------------|


 "Little soldiers in a row"
 "Falling in and out of love"
 "With something sweet to throw away"
Lead:
 C|--19--------16---\\\----------------------------||
 G|-------16-------------12-14b--12----------------||
Eb|---------------------------------13-11----------||
Bb|---------------------------------------13-------||
 F|------------------------------------------9-11--||
 C|------------------------------------------------||


 "But I want something good to die for"
Lead:
 C|------------||
 G|------------||
Eb|--15----13--||
Bb|------------||
 F|------------||
 C|------------||


 "To make it beautiful to live"
 "I want a new mistake, lose is more than hesitate"
Lead:
 C|--19----18--||
 G|------------||
Eb|------------|| let these notes ring
Bb|------------|| with  extended feedback
 F|------------||
 C|------------||

 "Do you believe it in your head?"


Chorus Lead: (3x)
 C|--16----14--------||
 G|--------------16--||
Eb|------------------||
Bb|------------------||
 F|------------------||
 C|------------------||

Chorus Riff:
 "I can go with the flow"
 "But don't say it doesn't matter anymore"
 "I can go with the flow"

Lead:
 C|--16----14----20--||
 G|------------------||
Eb|------------------||
Bb|------------------||
 F|------------------||
 C|------------------||

"Do you believe it in your head?"


Outro Lead:
 C|--19--21--20--||
 G|--------------||
Eb|--------------||
Bb|--------------||
 F|--------------||
 C|--------------||


Final Lead:
 C|--19--21--22b--||
 G|---------------||
Eb|---------------||
Bb|---------------||
 F|---------------||
 C|---------------||





Comments


Popular Queens Of The Stone Age tabs & chords
Little Sister 2 Bass Tabs
Precious & Grace Bass Tabs
I Wanna Make It Wit Chu Drum Tabs
No One Knows 1 Drum Tabs
A Song For The Dead 1 Tabs
Era Vulgaris Tabs
Everybodys Gonna Be Happy 1 Tabs
I Wanna Make It Wit Chu 1 Tabs
Im Designer 2 Tabs
No One Knows 6 Tabs


Song lyrics



↑ Back to top | Tablatures and chords are parodies/interpretations of the original songs. You may use it for private study, scholarship, research or language learning purposes only
© 2014 AZChords.com Contact us | Privacy policy | DMCA | Add/correct tabs | Request tabs | Top 50 tabs