» » »

Queens Of The Stone Age, Do It Again Tabs (ver.1)

Artists:  A B C D E F G H I J K L M N O P Q R S T U V W X Y Z # 

Do It Again Tabs (ver.1)

Queens Of The Stone Age Tabs
4/5 (4 votes)
Do It Again lessons Tabs too difficult? Try these video lessons and learn fast
                Queens of the Stone Age - Do It Again

This is just one of the great songs off of Songs for the Deaf
It's not really that hard, but you must tune down the way Josh
Homme does cause hes a genius, DEAL WITH IT!!!

Tune 2 steps down low to high, (C F Bb Eb G C)

Verse Riff
Play this with up and down strokes

C -----------------------------------| 
G -----------------------7-----------| 
F --7--7--7--7--7--------------------| 
C --0--0--0--0--0--------------------| 
I havent quite figured this out but 
it goes something like this

C -----------------------------------| 
G -----------------------------------| 
F -10-10--7--7--6--6/7--7--7---------| 
C --8--8--5--5--4--4/5--5--0---------| 
Thats about it.  The middle part is basically the same chords as
the chorus, just played in a different way.  Email me if you think
Submit corrections

comments powered by Disqus
↑ Back to top | Queens Of The Stone Age Tabs for Do It Again. Lyrics for acoustic guitar and electric guitar. Tablatures and chords are parodies/interpretations of the original songs. You may use it for private study, scholarship, research or language learning purposes only