» » »

Queens Of The Stone Age, 3's & 7's Tabs (ver.3)

Artists:  A B C D E F G H I J K L M N O P Q R S T U V W X Y Z # 

3's & 7's Tabs (ver.3)

Queens Of The Stone Age Tabs
 Rating:
4/5 (12 votes)
3's & 7's lessons Tabs too difficult? Try these video lessons and learn fast
                (Intro)
-------------------------------------------------------------------------------
                        3's & 7's - Queens of the Stone Age
-------------------------------------------------------------------------------

Rhythm:
e|---------------------------------------------------------------------------|
B|---------------------------------------------------------------------------|
G|---------------------------------------------------------------------------|
D|-x-x-x-x-8-8-x-x-11-11-11-8-8-x-x-6-6-5-3-3--------------------------------|
A|-x-x-x-x-8-8-x-x-11-11-11-8-8-x-x-6-6-5-3-3--------------------------------|
E|-x-x-x-x-6-6-x-x--9--9--9-6-6-x-x-4-4-3-1-1--------------------------------|

Lead:
e|--s13----------------------------------------------------------------------|
B|------s14------------------------------------------------------------------|
G|----------s15--------------------------------------------------------------|
D|---------------15s18s15s18---15s-------------------------------------------|
A|---------------------------------------------------------------------------|
E|---------------------------------------------------------------------------|
            
Submit corrections

comments powered by Disqus
↑ Back to top | Queens Of The Stone Age Tabs for 3's & 7's. Lyrics for acoustic guitar and electric guitar. Tablatures and chords are parodies/interpretations of the original songs. You may use it for private study, scholarship, research or language learning purposes only