>
 >
3s And 7s

3s And 7s Guitar Tabs

Queens Of The Stone Age - 3s And 7s chords, tabs, tablatures, lyrics

Guitar lessons | Add/correct | Request | Top 50 tabs Artists:  A B C D E F G H I J K L M N O P Q R S T U V W X Y Z 0-9

3s And 7s Guitar Tabs – Queens Of The Stone Age

CD, Sheet music, Poster

Do you like 3s And 7s? Share with your friends now
Bass TabsBass Tabs v2ChordsTabsTabs v2Tabs v3Tabs v4Ukulele
3's and 7's
Queens Of The Stone Age
Tuning: C standard (C F Bb Eb G C)


Main Riff
|--------------------------------------------------------------------|
|--------------------------------------------------------------------|
|-xxxx-7-7-xx-1010-7-7-xx------------xxxx-7-7-xx-1010-7-7-xx---------|
|-xxxx-7-7-xx-1010-7-7-xx-10109-7--7-xxxx-7-7-xx-1010-7-7-xx-10109-7-|
|-xxxx-5-5-xx-8-8--5-5-xx-10109-7--7-xxxx-5-5-xx-8-8--5-5-xx-10109-7-|
|-------------------------8-8-7-5--5-------------------------8-8-7-5-|

Lead
|-15/17-12/13--------------------------------|
|-------------13/15--------------------------|
|--------------------12/14\12/14-------------|
|----------------------------------14b15\12--|
|--------------------------------------------|
|--------------------------------------------|

Chorus (x2)
|-----------------------------------------|     |-----------|
|-----------------------------------------|     |-----------|
|-----------------------------------------|     |-5/6-6-6-6-|
|-6-6--8-8--1010-6-6--6-6--8-8--8-8--1010-|     |-5/6-6-6-6-|
|-6-6--8-8--1010-6-6--6-6--8-8--8-8--1010-|     |-3/4-4-4-4-|
|-4-4--6-6--8-8--4-4--4-4--6-6--6-6--8-8--|     |-----------|

First Solo
|-------------------------------------13----------------------------|
|--------------------------------10-------10-----------13---14b14--/|
|--------------------5----6------12b14---b12-10-12p10---------------|
|/5b--/3--3--3/5-------------------------------------12--12b--------|
|------- 5-5-----3/5--5/7-------------------------------------------|
|-------------------------------------------------------------------|

Bridge
|-------------------------------------------------------------------------------|x2
|-------------------------------------------------------------------------------|
|-------------------------------------------------------------------------------|
|-------------------------------------------------------------------------------|
|-7---7---10--10--9---9---12---12---11--11--14---14---1212121212121212-88888888-|
|-5-0-5-0-8-0-8-0-7-0-7-0-10-0-10-0-9-0-9-0-12-0-12-0---------------------------|

|--------------------------------------------------------------------------|x2
|--------------------------------------------------------------------------|
|--------------------------------------------------------------------------|
|--------------------------------------------------------------------------|
|-12-12--10101010--9999--88810-7777--12121212----1212121212121212-88888888-|
|---0--0---------0-----0-----------0---------0--0--------------------------|

|------------------------------------|
|------------------------------------|
|-2----------------------------------|
|-2----------------------------------|
|-0--------1212121212121212-88888888-|
|------------------------------------|

Bass riff
|--------5-5---5---------------5-5---5----|
|---3--------5---7----7------------5---7\-|
|-5---5-------------7---5h8p5-------------|
|-----------------------------------------|

|-10--13p10-13p10-10h13p10--10--/17-----------------------------------------|
|-13b---------------------13-------17---17b-17-15h17p15--15-----------------|
|------------------------------------------------------17--17b--14-17----14-|
|---------------------------------------------------------------------17----|
|---------------------------------------------------------------------------|
|---------------------------------------------------------------------------|

-----------------------------------------------------------------------------|
--------14~-14--10--8---11---10--6--8---/14----------14----------------------|
---------------x12bx10bx13b-x12b-8b10b-----------12b---12-121212--12---------|
--12/14---------------------------------------15----------------15--15-------|
-----------------------------------------------------------------------10-12-|
-----------------------------------------------------------------------------|

--------------------------------------------------------------------------|
--------------------------------------------------------------------------|
--------------------------------------------------------------------------|
-------------------------------------------------11-------------10--------|
--10b11b10p8----10b11b10p8----10b11b11p8---8--------------810b11--10b8----|
------------10------------10------------10---8/10-----8h10------------10--|

------------------------------------------------------------------|
------------------------------------------------------------------|
---------------------7/9--9h10p9p7h9--/14-10--12p910p910p9--/12-9-|
------------10----------------------------------------------------|
------810b11--10p810----------------------------------------------|
--8h10------------------------------------------------------------|

-----------------------------------------|
-----------------------------------------|
--9h10p9p7h9---/14-10--12p910p910p9-/14--|
-----------------------------------------|
-----------------------------------------|
-----------------------------------------|





Comments


Popular Queens Of The Stone Age tabs & chords
Another Love Song 1 Bass Tabs
I Wanna Make It Wit Chu Bass Tabs
Little Sister 2 Bass Tabs
Suture Up Your Future Bass Tabs
No One Knows Chords
Go With The Flow 4 Tabs
Go With The Flow.. Tabs
Keep Your Eyes Peeled 1 Tabs
Millionaire 2 Tabs
You Got A Killer Scene There Man Tabs


Song lyrics



↑ Back to top | Tablatures and chords are parodies/interpretations of the original songs. You may use it for private study, scholarship, research or language learning purposes only
© 2014 AZChords.com Contact us | Privacy policy | DMCA | Add/correct tabs | Request tabs | Top 50 tabs