» » »

Primus, Eleven Tabs (ver.3)

Artists:  A B C D E F G H I J K L M N O P Q R S T U V W X Y Z # 

Eleven Tabs (ver.3)

Primus Tabs
 Rating:
4/5 (4 votes)
Eleven lessons Tabs too difficult? Try these video lessons and learn fast
1
                
ELEVEN
As recorded by Primus
(From the 1991 Album SAILING THE SEAS OF CHEESE)

        

Words by Les Claypool Music by Les Claypool, Larry LaLonde and Tim Alexander

Gtr I (E A D G B E) - 'Untitled'

 Intro
 11/8
  Gtr I
  Wx4
|--------||
|--------||
|--------||
|--------||
|--------||
|--------||


  Wx11
|---------||
|---------||
|---------||
|---------||
|---------||
|---------||


                     \1/   \1/                      \1/  \1/
   ~~~~~~~~~~~~~~~                ~~~~~~~~~~~~~~~
   Q.    Q.    Q.    E    +E      Q.    Q.    Q.    E    E
|------------------------------|-----------------------------|
|-15----15----15----14---(14)--|-15----15----15----12---14---|
|------------------------------|-----------------------------|
|------------------------------|-----------------------------|
|------------------------------|-----------------------------|
|------------------------------|-----------------------------|


                      \1/   \1/
   ~~~~~~~~~~~~~~~~                ~~~~~~~~~~~~~~~~  PM|
   Q   E  Q.    Q.    E    +E      Q   E  Q.    Q.   E E
|-------------------------------|------------------------|
|-15--15-15----15----14---(14)--|-15--15-15----15--------|
|-------------------------------|------------------------|
|-------------------------------|------------------------|
|-------------------------------|------------------------|
|-------------------------------|--------------------3-2-|


  PM      PM      PM       PM----|       PM      PM       PM|
  E  E  E E  E  E E  E  E  E E   E  E  E E  E  E E  E  E  E E
|------------------------------|------------------------------||
|------------------------------|------------------------------||
|---12-14---12-11---12-14\-----|---12-14---12-11---12-14\-----||
|------------------------------|------------------------------||
|---10-12---10--9---10-12\-----|---10-12---10--9---10-12\-----||
|-0-------0-------0--------3-2-|-0-------0-------0--------3-2-||


 Verse
  $
  PM------------------------------------------|
  E E E E E E E E E E E   E E E E E E E E E E E
|-----------------------|-----------------------|
|-----------------------|-----------------------|
|-----------------------|-----------------------|
|-----------------------|-----------------------|
|---3-5---3-2---3-5-----|---3-5---3-2---3-5-----|
|-0-3-5-0-3-2-0-3-5-3-2-|-0-3-5-0-3-2-0-3-5-3-2-|


  PM---------------------------------------------
  E E E E E E E E E E E   E E E E E E E E E E E
|-----------------------|-----------------------|
|-----------------------|-----------------------|
|-----------------------|-----------------------|
|-----------------------|-----------------------|
|---3-5---3-2---3-5-----|---3-5---3-2---3-5-----|
|-0-3-5-0-3-2-0-3-5-3-2-|-0-3-5-0-3-2-0-3-5-3-2-|


 -|       PM      PM       PM------------------------|
  E  E  E E  E  E E  E  E  E E   E E E E E E E E E E E
|------------------------------|-----------------------|
|------------------------------|-----------------------|
|---12-14---12-11---12-14\-----|-----------------------|
|------------------------------|-----------------------|
|---10-12---10--9---10-12\-----|---3-5---3-2---3-5-----|
|-0-------0-------0--------3-2-|-0-3-5-0-3-2-0-3-5-3-2-|


  PM------------------------------------------|
  E E E E E E E E E E E   E E E E E E E E E E E
|-----------------------|-----------------------||
|-----------------------|-----------------------||
|-----------------------|-----------------------||
|-----------------------|-----------------------||
|---3-5---3-2---3-5-----|---3-5---3-2---3-5-----||
|-0-3-5-0-3-2-0-3-5-3-2-|-0-3-5-0-3-2-0-3-5-3-2-||


  PM---------------------------------------------
  E E E E E E E E E E E   E E E E E E E E E E E
|-----------------------|-----------------------|
|-----------------------|-----------------------|
|-----------------------|-----------------------|
|-----------------------|-----------------------|
|---3-5---3-2---3-5-----|---3-5---3-2---3-5-----|
|-0-3-5-0-3-2-0-3-5-3-2-|-0-3-5-0-3-2-0-3-5-3-2-|


 ---------------------------------------------|
  E E E E E E E E E E E   E E E E E E E E E E E
|-----------------------|-----------------------|
|-----------------------|-----------------------|
|-----------------------|-----------------------|
|-----------------------|-----------------------|
|---3-5---3-2---3-5-----|---3-5---3-2---3-5-----|
|-0-3-5-0-3-2-0-3-5-3-2-|-0-3-5-0-3-2-0-3-5-3-2-|


  PM      PM      PM       PM---------------------------
  E  E  E E  E  E E  E  E  E E   E E E E E E E E E E E
|------------------------------|-----------------------|
|------------------------------|-----------------------|
|---12-14---12-11---12-14\-----|-----------------------|
|------------------------------|-----------------------|
|---10-12---10--9---10-12\-----|---3-5---3-2---3-5-----|
|-0-------0-------0--------3-2-|-0-3-5-0-3-2-0-3-5-3-2-|


 ---------------------------------------------|
  E E E E E E E E E E E   E E E E E E E E E E E
|-----------------------|-----------------------|
|-----------------------|-----------------------|
|-----------------------|-----------------------|
|-----------------------|-----------------------|
|---3-5---3-2---3-5-----|---3-5---3-2---3-5-----|
|-0-3-5-0-3-2-0-3-5-3-2-|-0-3-5-0-3-2-0-3-5-3-2-|


 Chorus
 9/8         11/8
              PM      PM      PM       PM----|       PM      PM       PM|
  W           E  E  E E  E  E E  E  E  E E   E  E  E E  E  E E  E  E  E E
|-----------|------------------------------|-------------------------------|
|-----------|------------------------------|-------------------------------|
|-----------|---12-14---12-11---12-14\-----|---12-14---12-11---12-14\------|
|-----------|------------------------------|-------------------------------|
|-----------|---10-12---10--9---10-12\-----|---10-12---10--9---10-12\------|
|-----------|-0-------0-------0--------3-2-|-0-------0-------0--------3-2--|


 12/8
           <
  H.       Q.    +Q    +E
|---------------------------|
|---------------------------|
|---------17----(17)--(17)\-|
|---------------------------|
|---------15----(15)--(15)\-|
|---------------------------|


                                         To Coda
   11/8
    PM------------------------------------------|
    E E E E E E E E E E E   E E E E E E E E E E E
||------------------------|------------------------||
||o-----------------------|-----------------------o||
||------------------------|------------------------||
||------------------------|------------------------||
||o---3-5---3-2---3-5-----|---3-5---3-2---3-5-----o||
||--0-3-5-0-3-2-0-3-5-3-2-|-0-3-5-0-3-2-0-3-5-3-2--||


 Guitar Solo
           ~~~~~~~~~~~~~       ~~~~~~~~~~~~~
    E.  S  E  +Q    +S   S  S  S  +Q    +E   S  S
|-------------------------------------------------|
|-------------------------------------------------|
|-----------------------14-12---------------------|
|-/14--14-14-(14)--(14)-------14-(14)--(14)-14-11-|
|-------------------------------------------------|
|-------------------------------------------------|


   H.       S  S  S  S  e  e  S  S
|----------------------------------|
|----------------------------12-15-|
|----------------------12-14-------|
|----------11----11-14-------------|
|-12----------12-------------------|
|----------------------------------|


   ~~~                                      ~~~
   H.       S  S  E  e  T  T  T  T  S  S    Q.    +E   S S E E Q  E E
|----------------------------------------|----------------------------|
|-14-------12----12-12-------------------|----------------------------|
|-------------15-------16p15p14s12----12-|-12----(12)\-7--------------|
|----------------------------------14----|---------------9-9----------|
|----------------------------------------|-------------------7----x-x-|
|----------------------------------------|---------------------7--x-x-|


                          |--3--|
  Q  E Q.     S  S  S  S  S  S  S  S  S  S  S
|---------------------------------------------|
|-----------/15-15-15-15-15p14p12-15-15-15-15-|
|-9----9--------------------------------------|
|-9----9--------------------------------------|
|-7----7--------------------------------------|
|----0-0--------------------------------------|


                  ~~~~~~~~~~~~~~
   |--3--|                                       |---3---|
   S  S  S  S  S  E  +Q.    +E   S  S  S      S  S  +S   S  S  S
|--------------------------------------------13--------------------|
|-15p14p12-15s17-14-(14)---(14)-12-14-14b15=====14r(14)-12-12-14---|
|------------------------------------------------------------------|
|------------------------------------------------------------------|
|------------------------------------------------------------------|
|------------------------------------------------------------------|


                           |--3--|  |--3--|  |--3--|  |--3--|  |--3--|
   S  S  E  E  E     +Q    S  S  S  S  S  S  S  S  S  S  S  S  S  S  S
|----12----12-14b15r(14)--14-14-12-14-14-14-15-15-15-14-14-12-12-15-15-|
|-15----14-------------------------------------------------------------|
|----------------------------------------------------------------------|
|----------------------------------------------------------------------|
|----------------------------------------------------------------------|
|----------------------------------------------------------------------|


   TP    TP TP TP             ~~~~~~~~~
                   |3-|
   Q.    E  E  E   S  E      +Q    +E.  +S
|-17----17-19-17------------------------------||
|-------15-17-15-/19-19b21==(19)--(19)-(19)r\-||
|---------------------------------------------||
|---------------------------------------------||
|---------------------------------------------||
|---------------------------------------------||


  PM      PM      PM       PM----|       PM      PM       PM---
  E  E  E E  E  E E  E  E  E E   E  E  E E  E  E E  E  E  E E
|------------------------------|------------------------------|
|------------------------------|------------------------------|
|---12-14---12-11---12-14\-----|---12-14---12-11---12-14\-----|
|------------------------------|------------------------------|
|---10-12---10--9---10-12\-----|---10-12---10--9---10-12\-----|
|-0-------0-------0--------3-2-|-0-------0-------0--------3-2-|


                                                D.S. al Coda
 -|       PM      PM       PM----|       PM      PM       PM|
  E  E  E E  E  E E  E  E  E E   E  E  E E  E  E E  E  E  E E
|------------------------------|------------------------------|
|------------------------------|------------------------------|
|---12-14---12-11---12-14\-----|---12-14---12-11---12-14\-----|
|------------------------------|------------------------------|
|---10-12---10--9---10-12\-----|---10-12---10--9---10-12\-----|
|-0-------0-------0--------3-2-|-0-------0-------0--------3-2-|


 Outro
  &
  PM      PM      PM       PM----|       PM      PM       PM---
  E  E  E E  E  E E  E  E  E E   E  E  E E  E  E E  E  E  E E
|------------------------------|------------------------------|
|------------------------------|------------------------------|
|---12-14---12-11---12-14\-----|---12-14---12-11---12-14\-----|
|------------------------------|------------------------------|
|---10-12---10--9---10-12\-----|---10-12---10--9---10-12\-----|
|-0-------0-------0--------3-2-|-0-------0-------0--------3-2-|


 -|       PM      PM       PM|
  E  E  E E  E  E E  E  E  E E   E E E Q.   Q.   Q
|------------------------------|--------------------*|
|------------------------------|--------------------*|
|---12-14---12-11---12-14\-----|--------------------*|
|------------------------------|--------------------*|
|---10-12---10--9---10-12\-----|--------------------*|
|-0-------0-------0--------3-2-|-0------------------*|



Duration Legend
---------------
W - whole; H - half; Q - quarter; E - 8th; S - 16th; T - 32nd; X - 64th; a - acciaccatura
+ - note tied to previous; . - note dotted; .. - note double dotted
Uncapitalized letters represent notes that are staccato (1/2 duration)
Irregular groupings are notated above the duration line
Duration letters will always appear directly above the note/fret number it represents the
duration for.  Duration letters with no fret number below them represent rests.  Multi-
bar rests are notated in the form Wxn, where n is the number of bars to rest for.  Low
melody durations appear below the staff

Tablature Legend
----------------
 h   - hammer-on
 p   - pull-off
 b   - bend
 pb  - pre-bend
 r   - bend release (if no number after the r, then release immediately)
 /\  - slide into or out of (from/to "nowhere")
 s   - legato slide
 S   - shift slide
 - natural harmonic
[n]  - artificial harmonic
n(n) - tapped harmonic
 ~   - vibrato
 tr  - trill
 T   - tap
 TP  - trem. picking
 PM  - palm muting
\n/  - tremolo bar dip; n = amount to dip
 \n  - tremolo bar down
 n/  - tremolo bar up
/n\  - tremolo bar inverted dip
 =   - hold bend; also acts as connecting device for hammers/pulls
 <> - volume swell (louder/softer)
 x   - on rhythm slash represents muted slash
 o   - on rhythm slash represents single note slash

Misc Legend
-----------
 |  - bar
||  - double bar
||o - repeat start
o|| - repeat end
*|  - double bar (ending)
 :  - bar (freetime)
 $  - Segno
 &  - Coda
Tempo markers -  = BPM(8/16=s8/s16), where s8 = swing 8ths, s16 = swing 16ths
            
Submit corrections

comments powered by Disqus
↑ Back to top | Primus Tabs for Eleven. Lyrics for acoustic guitar and electric guitar. 1 Tablatures and chords are parodies/interpretations of the original songs. You may use it for private study, scholarship, research or language learning purposes only