» » »

Eleven Tabs (ver.1)

Artists:  A B C D E F G H I J K L M N O P Q R S T U V W X Y Z # 

Eleven Tabs (ver.1)

Primus
Rating:
4/5 (1 vote)

Hard to play? Try these video lessons and learn fast.
                Band:Primus
Album:Sailing the Seas of Cheese
Tuning:Standard

Intro
E|--------~~~~~~~~~~~~~~5---~~~~~~~~~~~~~~----|
B/5-----5-5---------------8p5-------------5---|
G|------------------------------------------6-|
D|--------------------------------------------|
A|--------------------------------------------|
E|--------------------------------------------|
  1   2   3   4   5   6   7   8   9   10  11

E|----------------------------------------7h10\
B|------------------------------5/8---10------|
G|-----------------------/6---6---------------|
D|7-------------------------7-----------------|
A|--------------------------------------------|
E|--------------------------------------------|
  1   2   3   4   5   6   7   8   9   10  11
  ~~~~~~~~~~~~~~~~~~~~~~~~
E|9-----------------------7\6/7---7---7653----|
B|----------------------------------------5h-8|
G|--------------------------------------------|
D|--------------------------------------------|
A|--------------------------------------------|
E|--------------------------------------------|
  1   2   3   4   5   6   7   8   9   10  11
  ~~~~~~~~~~~~~~~~
E|--------------------------------------------|
B|8-------------------------------------------|
G|----------------7---------------------------|
D|------------------9-9-----------------------|
A|------------------------7-------------------|
E|----------------------------7---------------|
  1   2   3   4   5   6   7   8   9   10  11

  Harmonics----          (I use an octave pedal here)
E|5-----------5-------------------------------|
B|5-----------5-------------------------------|
G|5-----------5-----------7-7-7-7-764-7-7-7-7-|
D|--------------------------------------------|
A|--------------------------------------------|
E|--------4-----------------------------------|
  1   2   3   4   5   6   7   8   9   10  11
                                    b  r
E|--------~~~~~~~~~~~~~~~~~~~~----------------|
B|------------------------------------8-------|
G|764-7/9-8-----------------------6-6--6----6-|
D|----------------------------9-----------9---|
A|--------------------------------------------|
E|--------------------------------------------|
  1   2   3   4   5   6   7   8   9   10  11
              b   r   (delay on)
E|--------------------------------------------|
B|--5-----5---7-------7p5h7-7h8-8p7p5h7p5-5h8-|
G|7---6---------------------------------------|
D|--------------------------------------------|
A|--------------------------------------------|
E|--------------------------------------------|
  1   2   3   4   5   6   7   8   9   10  11
  Trem pick
E|5-----------5---7---5-----/\/\/\/\/\/\/\/\/\|
B|------------3---5---3---7/9-----------------|
G|--------------------------------------------|
D|--------------------------------------------|
A|--------------------------------------------|
E|--------------------------------------------|
  1   2   3   4   5   6   7   8   9   10  11

Heres the intro riff as well

E|10----------10----------10----------9----9--|
B|------------------------------------\/---\/-|
G|------------------------------------bar scoops
D|--------------------------------------------|
A|--------------------------------------------|
E|--------------------------------------------|
  1   2   3   4   5   6   7   8   9   10  11
            
Hard to play? Try these video lessons and learn fast. | Correct




comments powered by Disqus
↑ Back to top | Tablatures and chords are parodies/interpretations of the original songs. You may use it for private study, scholarship, research or language learning purposes only