>
 >
Wynona's Big Brown Beaver

Wynona's Big Brown Beaver Bass Tabs

Primus - Wynona's Big Brown Beaver chords, tabs, tablatures, lyrics

Guitar lessons | Add/correct | Request | Top 50 tabs Artists:  A B C D E F G H I J K L M N O P Q R S T U V W X Y Z 0-9

Wynona's Big Brown Beaver Bass Tabs – Primus

CD, Sheet music, Poster

Do you like Wynona's Big Brown Beaver? Share with your friends now
Bass TabsBass Tabs v2TabsTabs v2
This is the correct form of playing the song.

G|--7-7----7-7----7-7----7-7----7-7----7-7----7-7----7-7--|
D|--0-0----0-0----0-0----0-0----0-0----0-0----0-0----0-0--|
A|--------------------------------------------------------|
E|--------------------------------------------------------|

G|--11-11----11-11----11-11----11-11----11-11----11-11----11-11---
D|--0--0-----0--0-----0--0-----0--0-----0--0-----0--0-----0--0----
A|----------------------------------------------------------------
E|----------------------------------------------------------------

G|--11-11--|
D|--0--0---|
A|---------|
E|---------|

G|--7-7----7-7----7-7----7-7----7-7----7-7----18-18-18-18-19-21-19
D|--0-0----0-0----0-0----0-0----0-0----0-0------------------------
A|--5-5----5-5----5-5----5-5----5-5----5-5------------------------
E|----------------------------------------------------------------

G|--18\-|
D|------|
A|------|
E|------|

G|------------7--------12-10------------------14-------------19--|
D|--0--0--7/9---7---0--------10---0--0--12/14------0--0--17/-----|
A|---------------------------------------------------------------|
E|---------------------------------------------------------------|

G|------------7--------12-10------------------14---9-0-5--|
D|--0--0--7/9---7---0--------10---0--0--12/14-------------|
A|--------------------------------------------------------|
E|--------------------------------------------------------|

G|------------7--------12-10------------------14-------------19--|
D|--0--0--7/9---7---0--------10---0--0--12/14------0--0--17/-----|
A|---------------------------------------------------------------|
E|---------------------------------------------------------------|

G|------------7--------12-10------7-------6----|
D|--0--0--7/9---7---0--------10----7-9\6---6\--|
A|---------------------------------------------|
E|---------------------------------------------|

G|--------------------------------------------------------------
D|--0--0----0--0----0--0----0--0----0--0----0--0----0--0--------
A|--------------------------------------------------------3-3-4-
E|--------------------------------------------------------------
                           
           (Lyrics begin)  
G|----------------------------------------------------------------
D|--0--0---------0--0----0--0----0--0----0--0----0--0----0--0-----
A|--------3-3-4---------------------------------------------------
E|----------------------------------------------------------------

G|--------------------------------------------------------------
D|--0--0----0--0---------0--0----0--0----0--0----0--0----0--0---
A|----------------3-3-4-----------------------------------------
E|--------------------------------------------------------------

G|----------------|
D|--0--0----0--0--|
A|----------------|
E|----------------|

G|--------8-------|
D|--0/9\7---12\0--|
A|----------------|
E|----------------|

G|------------7--------12-10------------------14-------------19--|
D|--0--0--7/9---7---0--------10---0--0--12/14------0--0--17/-----|
A|---------------------------------------------------------------|
E|---------------------------------------------------------------|

G|------------7--------12-10------------------14---9-0-5--|
D|--0--0--7/9---7---0--------10---0--0--12/14-------------|
A|--------------------------------------------------------|
E|--------------------------------------------------------|

G|------------7--------12-10------------------14-------------17--|
D|--0--0--7/9---7---0--------10---0--0--12/14------0--0--15/-----|
A|---------------------------------------------------------------|
E|---------------------------------------------------------------|

G|------------7--------12-10------7-------6----|
D|--0--0--7/9---7---0--------10----7-9\6---6\--|
A|---------------------------------------------|
E|---------------------------------------------|

   (only play this twice)
G|--7--|
D|--9--|
A|--8--|
E|-----|

G|------------------------------------------------
D|--0--0----0--0----0--0----0--0----0--0----0--0--
A|------------------------------------------------
E|------------------------------------------------

G|----------------------------------------------------------------
D|--2-2-2-3--4--5--6--7-8----0--0----0--0----0--0----0--0----0--0-
A|----------------------------------------------------------------
E|----------------------------------------------------------------

G|------------------------11--------------------------------------
D|--0--0----0--0----0--0--0------0--0----0--0----0--0----0--0-----
A|----------------------------------------------------------------
E|----------------------------------------------------------------

G|--------------------------------|
D|--3-3-4---0--0----0--0----0--0--|
A|--------------------------------|
E|--------------------------------|

G|--------8-------|
D|--0/9\7---12\0--|
A|----------------|
E|----------------|

          (Guitar solo starts)
G|------------7--------12-10------------------14-------------19--|
D|--0--0--7/9---7---0--------10---0--0--12/14------0--0--17/-----|
A|---------------------------------------------------------------|
E|---------------------------------------------------------------|

G|------------7--------12-10------------------14---9-0-5--|
D|--0--0--7/9---7---0--------10---0--0--12/14-------------|
A|--------------------------------------------------------|
E|--------------------------------------------------------|

G|------------7--------12-10------------------14-------------19--|
D|--0--0--7/9---7---0--------10---0--0--12/14------0--0--17/-----|
A|---------------------------------------------------------------|
E|---------------------------------------------------------------|

G|------------7--------12-10-------999-12-9-12-10-9-|
D|--0--0--7/9---7---0--------10---------------------|
A|--------------------------------------------------|
E|--------------------------------------------------|

G|---------------------------------------------------------------
D|--0--0--000--0---0--000--0---0--00---0---0--0--0--000--0---0---
A|-----------------------------------3---3-----------------------
E|---------------------------------------------------------------

G|---------------------------------------------------------------
D|-000--0---0--00---0---0--0---0--000--0---0--000--0---0--00---0-
A|----------------3---3--------------------------------------3---
E|---------------------------------------------------------------

G|--------------------------------------11----11-----------------
D|--0---0--0--0--000--0---0--000--0---0--0--0--0--0--0--0--000---
A|----3----------------------------------------------------------
E|---------------------------------------------------------------

G|-------------------11----11----11----11-----------|
D|--0--0--000--0--0--0--0--0--0--0--0--0------------|
A|--------------------------------------------------|
E|--------------------------------------------------|

G|-----12.12.12.12.12-----77777-----99999-----55555---
D|----------------------------------------------------
A|----------------------------------------------------
E|----------------------------------------------------

G|-----12.12.12.12.12-----77777------11\---11\--|
D|-----------------------------------0----0-----|
A|----------------------------------------------|
E|----------------------------------------------|

       (Bend up all 3)
G|----------------------------------------------------------------
D|-0--0----0--0----0--0----0--0----0--0----0--0----0--0----0--0---
A|--------------------------------------------------------------3-
E|----------------------------------------------------------------
						
G|-------------------------------------------------------
D|--0--0----0--0----0--0----0--0----0--0----0--0---0-----
A|----------------------------------------------------3--
E|-------------------------------------------------------

G|----------------------------------------------------------------
D|--0-----0-----0-----0--0----0--0----0--0----0--0----0--0----0--0
A|-----3-----3-----3----------------------------------------------
E|----------------------------------------------------------------

G|----------------11----------------------------------------------
D|--0--0----0--0--0---0--0----0--0----0--0----0--0----------0--0--
A|--------------------------------------------------3-3-3-4-------
E|----------------------------------------------------------------

G|------------------------------11---|
D|--0--0----------0--0----0--0--0----|
A|--------3-3-3-4--------------------|
E|-----------------------------------|

G|--7----7----7----7----7----7----7--|
D|--0----0----0----0----0----0----0--|
A|-----------------------------------|
E|-----------------------------------|

G|------------7--------12-10------------------14-------------19--|
D|--0--0--7/9---7---0--------10---0--0--12/14------0--0--17/-----|
A|---------------------------------------------------------------|
E|---------------------------------------------------------------|

G|------------7--------12-10------------------14---9-0-5--|
D|--0--0--7/9---7---0--------10---0--0--12/14-------------|
A|--------------------------------------------------------|
E|--------------------------------------------------------|

G|------------7--------12-10------------------14-------------19--|
D|--0--0--7/9---7---0--------10---0--0--12/14------0--0--17/-----|
A|---------------------------------------------------------------|
E|---------------------------------------------------------------|

G|------------7--------12-10--------9-9-9-9-9-9-9----|
D|--0--0--7/9---7---0--------10---0--7-7-7-7-7-7-----|
A|---------------------------------------------------|
E|---------------------------------------------------|

G|---------------------------------------------------------------
D|--0--0--000--0---0--000--0---0--00---0---0--0--0--000--0---0---
A|-----------------------------------3---3-----------------------
E|---------------------------------------------------------------

G|---------------------------------------------------------------
D|-000--0---0--00---0---0--0---0--000--0---0--000--0---0--00---0-
A|----------------3---3--------------------------------------3---
E|---------------------------------------------------------------

G|--------------------------------------11----11-----------------
D|--0---0--0--0--000--0---0--000--0---0--0--0--0--0--0--0--000-0-
A|----3----------------------------------------------------------
E|---------------------------------------------------------------

G|---------------------------------------------------11--11---11--
D|-0--000--0--0--00--0---0--0--0--000--0--0--000-0-0-0-0-0-0--0--0
A|-----------------3---3------------------------------------------
E|----------------------------------------------------------------

G|----14-----------12.12.12.12.12-----77777-----99999-----55555-|
D|-0--0--0-----0--0---------------0--0------0--0------0--0------|
A|--------------------------------------------------------------|
E|--------------------------------------------------------------|

G|-----12.12.12.12.12-----77777-----99999--11\---11\--|
D|-0--0---------------0--0------0--0-------0-----0----|
A|----------------------------------------------------|
E|----------------------------------------------------|

I put the dots between the numbers so you donīt get confuced
  play them as a quadruplet not a mute
	    
G|----------------------------------------------------------11--
D|-0--0--13.12.11.12--0--0--14.13.12.13--0--0--13.12.11.12--0---
A|--------------------------------------------------------------
E|--------------------------------------------------------------

G|----------------------------------------------------------11--|
D|-0--0--13.12.11.12--0--0--14.13.12.13--0--0--13.12.11.12--0---|
A|--------------------------------------------------------------|
E|--------------------------------------------------------------|

G|-------20.19.18.19--------21.20.19.20--------20.19.18.19--11-
D|-0--0---------------0--0---------------0--0---------------0--
A|-------------------------------------------------------------
E|-------------------------------------------------------------

G|-------20.19.18.19--------21.20.19.20--------20.19.18.19--11-|
D|-0--0---------------0--0---------------0--0---------------0--|
A|-------------------------------------------------------------|
E|-------------------------------------------------------------|

G|--7-7----7-7----7-7----7-7--|
D|--0-0----0-0----0-0----0-0--|
A|----------------------------|
E|----------------------------|

G|--11-11----11-11----11-11----11-11-|
D|--0--0-----0--0-----0--0-----0--0--|
A|-----------------------------------|
E|-----------------------------------|

G|--19-19----19-19----19-19----19-19----19-19----19-19----19-19-
D|--0--0-----0--0-----0--0-----0--0-----0--0-----0--0-----0--0--
A|--17-17----17-17----17-17----17-17----17-17----17-17----17-17-
E|--------------------------------------------------------------

G|--19-19----19-19--|||
D|--0--0-----0--0---|||
A|--17-17----17-17--|||
E|------------------|||





Comments


Popular Primus tabs & chords
Eleven 3 Bass Tabs
Ground Hogs Day Bass Tabs
Hats Off Bass Tabs
Mama Didn't Raise No Fool 1 Bass Tabs
On The Tweek Again 1 Bass Tabs
Thieves 1 Bass Tabs
Coattails Of A Dead Man Tabs
Intruder Tabs
Nature Boy Tabs
The Carpenter And The Dainty Bride Tabs


Song lyrics



↑ Back to top | Tablatures and chords are parodies/interpretations of the original songs. You may use it for private study, scholarship, research or language learning purposes only
© 2014 AZChords.com Contact us | Privacy policy | DMCA | Add/correct tabs | Request tabs | Top 50 tabs