» » »

Eleven Bass tabs (ver.3)

Artists:  A B C D E F G H I J K L M N O P Q R S T U V W X Y Z # 

Eleven Bass tabs (ver.3)

Primus
Rating:
0/5 (0 votes)

Hard to play? Try these video lessons and learn fast.
                this is possibly the easiest song ever to play

Intro:
G---------------------------|
D---------------------------|
A---------------------------|
E-2~----3~----2~----0~----0-|
  s     s     s     s     s

G---------------------------|
D---------------------------|
A---------------------------|
E-2~----3~----2~----0~----0-|
  s     s     s     s     s

Main Riff:
        V   V   V ^   V   V
G-------5/6-7---5-4---5/6-7-|
D-------5/6-7---5-4---5/6-7-|
A---------------------------|
E-3-2-0-------0-----0-------|
            
Hard to play? Try these video lessons and learn fast. | Correct




comments powered by Disqus
↑ Back to top | Tablatures and chords are parodies/interpretations of the original songs. You may use it for private study, scholarship, research or language learning purposes only