» » »

Primus, Eleven Tabs (ver.2)

Artists:  A B C D E F G H I J K L M N O P Q R S T U V W X Y Z # 

Eleven Tabs (ver.2)

Primus Tabs
 Rating:
4/5 (4 votes)
Eleven lessons Tabs too difficult? Try these video lessons and learn fast
                ~ = fast vibrato with tremolo bar
<#> = depress tremolo bar
b = bend
* = look at the foot note

||---------||
||---------||
||---*/*---|| repeat previous bar
||---------||
||---------||
||---------||

Intro:
e||---------------------------------------|---------------------------------------------||
B||-15~~~~~~~~~15~~~~~~~~~15~~~~~~~~~<14>-|-15~~~~~~~~~15~~~~~~~~~15~~~~~~~~~<12>--<14>-||
G||---------------------------------------|---------------------------------------------||
D||---------------------------------------|---------------------------------------------||
A||---------------------------------------|---------------------------------------------||
E||---------------------------------------|---------------------------------------------||

e||----------------------------|----------------------------|------------------------------||
B||-15~~~~15~~15~~~~15~~~~<14>-|-15~~~~15~~15~~~~15~~~~-----|------------------------------||
G||----------------------------|----------------------------|---12-14---12-11---12-14\-----||
D||----------------------------|----------------------------|------------------------------||
A||----------------------------|----------------------------|---10-12---10-9----10-12\-----||
E||----------------------------|------------------------3-2-|-0-------0-------0--------3-2-||

Verse:
e||------------------------------||-----------------------||---------||
B||------------------------------||-----------------------||---------||
G||---12-14---12-11---12-14\-----||-----------------------||---*/*---||
D||------------------------------||-----------------------||---------||
A||---10-12---10-9----10-12\-----||---3-5---3-2---3-5-----||---------||
E||-0-------0-------0--------3-2-||-0-3-5-0-3-2-0-3-5-3-2-||---------||

Solo: w/wah as filter
e||------------------------------------------------|----------------------------------------||
B||------------------------------------------------|----------------------------------12-15-||
G||-----------------------14-12--------------------|--------------------------12--14--------||
D||-/14---14-14~~~~~~~~~~~------14~~~~~~~~~~~14-11-|--------------11----11-14---------------||
A||------------------------------------------------|-12--------------12---------------------||
E||------------------------------------------------|----------------------------------------||

e||---------------------------------------------|-------------------------------------------||
B||-14~~~~~~~~~~~12----12--12-------------------|-------------------------------------------||
G||-----------------15---------16p15p14\12---12-|-12~~~~~~~~~~~(12)\7-----------------------||
D||---------------------------------------14----|----------------------9--9-----------------||
A||---------------------------------------------|----------------------------7--------x---x-||
E||---------------------------------------------|-------------------------------7-----x---x-||

e||----------------------------------------------||
B||------------/15-15-15-15-15p14p12-15-15-15-15-||
G||-9------9-------------------------------------||
D||-9------9-------------------------------------||
A||-7------7-------------------------------------||
E||-----0--0-------------------------------------||

e||-------------------------------------13------------------||
B||-15p14p12-15/17-14~~~~~~~~~~12-14-14*---14(14)p12-12--14-||
G||---------------------------------------------------------||
D||---------------------------------------------------------||
A||---------------------------------------------------------||
E||---------------------------------------------------------||
                                       *bend and hold until (14) then bend back down

e||----12-----12--14b----14-14-12-14-14-14-15-15-15-14-14-12-12-15-15-||
B||-15----14----------------------------------------------------------||
G||-------------------------------------------------------------------||
D||-------------------------------------------------------------------||
A||-------------------------------------------------------------------||
E||-------------------------------------------------------------------||

e||-17*----17*-19*-17*--------------------------||
B||--------15*-17*-15*/19-19b~~~~~~~~~~~~~(19)\-||
G||---------------------------------------------||
D||---------------------------------------------||
A||---------------------------------------------||
E||---------------------------------------------||
      *trem. pick
            
Submit corrections

comments powered by Disqus
↑ Back to top | Primus Tabs for Eleven. Lyrics for acoustic guitar and electric guitar. Tablatures and chords are parodies/interpretations of the original songs. You may use it for private study, scholarship, research or language learning purposes only