» » »

Primus, Amos Moses Tabs (ver.1)

Artists:  A B C D E F G H I J K L M N O P Q R S T U V W X Y Z # 

Amos Moses Tabs (ver.1)

Primus Tabs
Rating:
5/5 (1 vote)
Amos Moses lessons Tabs too difficult? Try these video lessons and learn fast
                amos moses
primus

The first muted part is just a muted G then A I think.

Here is the main riff:

e----------------------------------|
B----------------------------------|
G----------2----5p2------2-----5p2-|
D---------------------5------------|
A-----0----------------------------|
E--3b------------------------------|

Amos Moses was a Cajun...
A7,B7,D7

Repeat main riff

A7,B7,D7

Repeat main riff

E7,D7,A x2

E,C,D

I think this riff is on bass, but it can be played on guitar like this:
e-------------------------|
B-------------------------|
G--7---5------------------|
D---------7----5----------|
A------------------8----5-|
E-------------------------|

Right after that there is this quiet riff

e---------------------------------------------------------------------|
B---------------------------8-------------------------8---------------|
G-----------5-------------------------------5------------7p6p5--------|
D--5h6h7--------7------5/7--------0--5h6h7-----7--5-------------7-----|
A------------------------------0--------------------------------------|
E ------------------------------------------------------------------8-|
            

comments powered by Disqus
↑ Back to top | Primus Tabs for Amos Moses. Lyrics for acoustic guitar and electric guitar. Tablatures and chords are parodies/interpretations of the original songs. You may use it for private study, scholarship, research or language learning purposes only