» » »

Primus, Electric Uncle Sam Bass tabs (ver.3)

Artists:  A B C D E F G H I J K L M N O P Q R S T U V W X Y Z # 

Electric Uncle Sam Bass tabs (ver.3)

Primus Tabs
Rating:
0/5 (0 votes)
Electric Uncle Sam lessons Tabs too difficult? Try these video lessons and learn fast
                -if you don't want to strum the -7-6-5- parts on the G and D strings during the intro 
chorus  then just slap the -7-6-5- on the D string

  V ^ V  V ^ V  V ^ V  V ^ V
G-7-6-5--7-6-5--7-6-5--7-6-5-|
D-7-6-5--7-6-5--7-6-5--7-6-5-|
A----------------------------| x4
D----------------------------|

               V ^ V ^ V ^ V
G--------------X-X-X-X-X-X-X-|-------------|
D--------------X-X-X-X-X-X-X-|-------------|
A--------------X-X-X-X-X-X-X-|-------------|
D-0h2-----0-2--X-X-X-X-X-X-X-|-0h2-----0-2-|
  s       s s                  s       s s
|             x3             |     x1      |

               V ^ V ^ V ^ V
G--------------X-X-X-X-X-X-X-|-------------|
D--------------X-X-X-X-X-X-X-|-------------|
A--------------X-X-X-X-X-X-X-|-------------|
D-0h2-----0-2--X-X-X-X-X-X-X-|-0h2-----0-2-|
  s       s s                  s       s s
|             x3             |     x1      |
                      V ^ V
G---------0-0---------7-6-5----------------0-0---------|
D---------------------7-6-5--------------------2-0-----|
A------------------------------------------------------| x3
D-0h2-0-2-----0-2-0-2-------0h2-0-2----0-0---------2-0-|
  s   s s p p s s s s       s   s s    s s p p p p s s

                      V ^ V
G---------0-0---------7-6-5-----------------|
D---------------------7-6-5-----------------|
A-------------------------------------------|
D-0h2-0-2-----0-2-0-2-------0h2-0-2-------2-|
  s s s s p p s s s s       s s s s       s

               V ^ V ^ V ^ V
G--------------X-X-X-X-X-X-X-|-------------|
D--------------X-X-X-X-X-X-X-|-------------|
A--------------X-X-X-X-X-X-X-|-------------|
D-0h2-----0-2--X-X-X-X-X-X-X-|-0h2-----0-2-|
  s       s s                  s       s s
|             x3             |     x1      |

               V ^ V ^ V ^ V
G--------------X-X-X-X-X-X-X-|-------------|
D--------------X-X-X-X-X-X-X-|-------------|
A--------------X-X-X-X-X-X-X-|-------------|
D-0h2-----0-2--X-X-X-X-X-X-X-|-0h2-----0-2-|
  s       s s                  s       s s
|             x3             |     x1      |

G--------0-0----------------------0-0---------|
D---------------------------------------------|
A---------------------------------------------|
D-2--0-2-----0-2-0-2-------2--0-2-----0-2-0-2-|
  s  s s p p s s s s       s  s s p p s s s s

G--------0-0---------------------0-0----------|
D---------------------------------------------|
A---------------------------------------------|
D-2--0-2-----0-2-0-2-------2-0-2-----0-x--12/-|
  s  s s p p s s s s       s s s p p s s  s

                      V ^ V
G---------0-0---------7-6-5----------------0-0----------|
D---------------------7-6-5--------------------2-0------|
A-------------------------------------------------------|
D-0h2-0-2-----0-2-0-2-------0h2-0-2----0-0----------2-0-|
  s   s s p p s s s s       s   s s    s s p p p p  s s

                      V ^ V
G---------0-0---------7-6-5----------------|
D---------------------7-6-5----------------|
A------------------------------------------|
D-0h2-0-2-----0-2-0-2-------0h2-0-2------2-|
  s   s s p p s s s s       s   s s      s

               V ^ V ^ V ^ V
G--------------X-X-X-X-X-X-X-|-------------|
D--------------X-X-X-X-X-X-X-|-------------|
A--------------X-X-X-X-X-X-X-|-------------|
D-0h2-----0-2--X-X-X-X-X-X-X-|-0h2-----0-2-|
  s       s s                  s       s s
|             x3             |     x1      |

               V ^ V ^ V ^ V
G--------------X-X-X-X-X-X-X-|-------------------|
D--------------X-X-X-X-X-X-X-|-------------------|
A--------------X-X-X-X-X-X-X-|-------------------|
D-0h2-----0-2--X-X-X-X-X-X-X-|-0h2-----0-2---12\-|
  s       s s                  s       s s   s
|             x3             |     x1            |

G----------------------------------------------------------------|
D----------------------------------------------------------------|
A----------------------------------------------------------------|
D-0-2-0-2----0-2-0-2----0-2-0-2----0-2-0-2----0-2-0-2----0-2-0-2-|
  s s s s    s s s s    s s s s    s s s s    s s s s    s s s s

                 V V
G------|---------0-0-|
D-0--0-|---------5-5-|
A------|-------------|
D------|-0-2-0-2-----|
  p  p   s s s s
       |     x16     |
            
Submit corrections

comments powered by Disqus
↑ Back to top | Primus Bass for Electric Uncle Sam. Lyrics for acoustic guitar and electric guitar. Tablatures and chords are parodies/interpretations of the original songs. You may use it for private study, scholarship, research or language learning purposes only