» » »

Electric Uncle Sam Bass tabs (ver.1)

Artists:  A B C D E F G H I J K L M N O P Q R S T U V W X Y Z # 

Electric Uncle Sam Bass tabs (ver.1)

Primus
Rating:
2/5 (4 votes)

Hard to play? Try these video lessons and learn fast.
                BASS TAB

Les plays a 6-string frettless bass so this is the 
best I can do on a 4-string

Tuning : D A D G (drop D)

Key
 p = Pull off
 S = Slap
 ^= pop

INTRO 

|--2p1p0--2p1p0--2p1p0--2p1p0-------|
|-----------------------------------|
|-----------------------------------|
|-----------------------------------|  x2

|-------------------------------|     
|-------------------------------|
|-------------------------------|
|--2--2-2---0-2--x-x-x-x-x-x-x--| x3 

on the fourth time
|--------------------0h2p0------|
|----------------0h2-------0----|
|-------------------------------|
|--2--2-2---0-2-----------------|


|-------------------------------|
|-------------------------------|
|-------------------------------|
|--2--2-2---0-2--x-x-x-x-x-x-x--| x4 

VERSE

             ^  ^                ^
|------------0--0----------------2p1p0-------|
|--------------------------------------------|
|--------------------------------------------|
|--2----0-2----------2---2--0-2--------------|
   s    s s          s   s  s s

             ^  ^      ^
|------------0--0------0-0----------------|
|----------------------------------------|
|----------------------------------------|
|--2----0-2--------0-0-----0--0-0--1-1-----|  
   s    s s        s s     s  s s  s s

CHORUS

|-------------------------------|     
|-------------------------------|
|-------------------------------|
|--2--2-2---0-2--x-x-x-x-x-x-x--| x3 

on the fourth time
|-------------------------------|
|-------------------------------|
|-------------------------------|
|--2--2-2---0-2-----------------|


|-------------------------------|
|-------------------------------|
|-------------------------------|
|--2--2-2---0-2--x-x-x-x-x-x-x--| x4 


ENDING

|-------------------------------|
|-------------------------------|
|-------------------------------|
|--2--2-2---0-2-----------------| x5
   s  s s   s s
                   ^  ^
|------------------0--0---------|
|-------------------------------|
|-------------------------------|
|--2--2-2---0-2-----------------| till end
   s  s s   s s

ORDER

intro x 1
verse x 4
chorus x 1
verse x 4
chorus x 1
Ending x 1

There are slight variation on the second verse where he leaves 
some notes off but the tabs correct otherwise.
            
Hard to play? Try these video lessons and learn fast. | Correct




comments powered by Disqus
↑ Back to top | Tablatures and chords are parodies/interpretations of the original songs. You may use it for private study, scholarship, research or language learning purposes only