» » »

Electric Uncle Sam Bass tabs (ver.2)

Artists:  A B C D E F G H I J K L M N O P Q R S T U V W X Y Z # 

Electric Uncle Sam Bass tabs (ver.2)

Primus
Rating:
4/5 (1 vote)

Hard to play? Try these video lessons and learn fast.
                Atrist: Primus - Les Claypool


Intro: Part 1
In this Les uses the double thumb technique in order to achieve
this sound. You can use a pick but it doesn't look as impressive.

G:----------------------------------|
D:-7-6-5--7-6-5--7-6-5--7-6-5-------|      X4
A:----------------------------------|
E:----------------------------------|

Intro: Part 2
Use the back of your nails in order to strum all four strings.
If you have no nails (much like myself) just slap the A string
with your thumb vertically and hit as many strings as possible.

G:------------x-x-x-x-x-x------|
D:------------x-x-x-x-x-x------|     x3
A:-7\-xxx5-7--x-x-x-x-x-x------|
E:------------x-x-x-x-x-x------|
   s  ssss s

G:-----------0h2-0h2-0h2-|
D:-----------------------|
A:-7\-xxx5-7----x---x----|
E:-----------------------|
   s  ssss s p  s p s p

G:------------x-x-x-x-x-x------|
D:------------x-x-x-x-x-x------|     x3
A:-7\-xxx5-7--x-x-x-x-x-x------|
E:------------x-x-x-x-x-x------|
   s  ssss s

G:-----------------------|
D:-----------5h7---5h7p5-|
A:-7\-xxx5-7-----x-------|
E:-----------------------|
   s  ssss s p   s p

Verse:

G:----------------------------------------------------|
D:----------5-5---------7-6-5  (Anytime you see 7-6-5-| in this tab,
A:-7--x-5-7--x--557-5-5\------------------------------|   use the double thumb technique.)
E:----------------------------------------------------|
   s  s s s psp sss s s

G:-------------------------------|
D:-------------------5-5---------|
A:-7--x-5-7------7-7-----5-5-6-6-|
E:----------7/12\----------------|
   s  s s s s    s s p p s s s s

Play the above 4 times except miss out the last part of the 2nd bar on the
4th time round, its hard to explain in words but you'll understand when you listen to it.

Chorus:

G:------------x-x-x-x-x-x------|
D:------------x-x-x-x-x-x------|     x8
A:-7\-xxx5-7--x-x-x-x-x-x------|
E:------------x-x-x-x-x-x------|
   s  ssss s

Verse 2:

G:---------------------------|
D:----------5-5--------------|
A:-7--x-5-7--x--557-5-5------|
E:---------------------------|
   s  s s s psp sss s s

G:---------------------------|
D:----------5-5--------------|
A:-7--x-5-7--x--557-5-5------|
E:----------------------12\--|
   s  s s s psp sss s s

Play the above 2 times, vocals start afterwards.

G:----------------------------|
D:----------5-5---------7-6-5-|
A:-7--x-5-7--x--557-5-5\------|
E:----------------------------|
   s  s s s psp sss s s

G:-------------------------------|
D:-------------------5-5---------|
A:-7--x-5-7------7-7-----5-5-6-6-|
E:----------7/12\----------------|
   s  s s s s    s s p p s s s s

^^ Same as 1st verse ^^


Chorus:

G:------------x-x-x-x-x-x------|
D:------------x-x-x-x-x-x------|     x8
A:-7\-xxx5-7--x-x-x-x-x-x------|
E:------------x-x-x-x-x-x------|
   s  ssss s

Bridge:

G:-------------|
D:-------------|
A:-7-7-5-7-----|    x5
E:-------------|
   s s s s

G:---------0--0-|
D:---------5--5-|
A:-7-7-5-7--xx--|
E:--------------|
   s s s s pssp

Outro:

G:---------0--0-------|
D:---------5--5   x16-|
A:-7-7-5-7--xx--------|
E:--------------------|
   s s s s pssp
            
Hard to play? Try these video lessons and learn fast. | Correct




comments powered by Disqus
↑ Back to top | Tablatures and chords are parodies/interpretations of the original songs. You may use it for private study, scholarship, research or language learning purposes only