» » »

Primus, Electric Uncle Sam Tabs (ver.2)

Artists:  A B C D E F G H I J K L M N O P Q R S T U V W X Y Z # 

Electric Uncle Sam Tabs (ver.2)

Primus Tabs
Rating:
5/5 (1 vote)
Electric Uncle Sam lessons Tabs too difficult? Try these video lessons and learn fast
                Band:Primus

Intro
E---------------------------------------------------------|
B---------------------------------------------------------|
G---------------------------------------------------------|
D--7-7-5--7-7-5--7-7-5--7-7-5--7-7-5--7-7-5--7-7-5--7-7-5-|
A--7-7-5--7-7-5--7-7-5--7-7-5--7-7-5--7-7-5--7-7-5--7-7-5-|
D--7-7-5--7-7-5--7-7-5--7-7-5--7-7-5--7-7-5--7-7-5--7-7-5-|

Fig1(chorus)
E-------------------------------------------------|
B-------------------------------------------------|
G-------------------------------------------------|
D--2-2-2-0-2---2-2-2-0-2---2-2-2-0-2---2-2-2-0-2--|
A--2-2-2-0-2---2-2-2-0-2---2-2-2-0-2---2-2-2-0-2--|
D--2-2-2-0-2---2-2-2-0-2---2-2-2-0-2---2-2-2-0-2--|

Fig2
E--------------------------------------|
B--------------12-------------------12-|
G--9-------12----------9--------12-----|

E--------------14-------------------14-|
B--12------15----------12-------15-----|
G--------------------------------------|

Fig3
E------------------------------------------------------------|
B------------------------------------------------------------|
G------------------------------------------------------------|
D--2-2-0-2--5-5---2-2-0-2--5-5---2-2-0-2--5-5---2-2-0-2--5-5-|
A--2-2-0-2--5-5---2-2-0-2--5-5---2-2-0-2--5-5---2-2-0-2--5-5-|
D--2-2-0-2--5-5---2-2-0-2--5-5---2-2-0-2--5-5---2-2-0-2--5-5-|

Intro x 2
Fig1 x 2
Fig2 x 1
Fig1 x 2
Fig2 x 1
Fig1 x 2
Fig3 x 5
            
Submit corrections

comments powered by Disqus
↑ Back to top | Primus Tabs for Electric Uncle Sam. Lyrics for acoustic guitar and electric guitar. Tablatures and chords are parodies/interpretations of the original songs. You may use it for private study, scholarship, research or language learning purposes only