» » »

Powderfinger, Sunsets Tabs (ver.3)

Artists:  A B C D E F G H I J K L M N O P Q R S T U V W X Y Z # 

Sunsets Tabs (ver.3)

Powderfinger Tabs
Rating:
0/5 (0 votes)
Sunsets lessons Tabs too difficult? Try these video lessons and learn fast
                -------------------------------------------------------------------------------
                             SONG NAME - Band Name
-------------------------------------------------------------------------------

Tuning: standard

Hey everyone heres the tab its 100% correct... if u dont agree e-mail me or write a new tab!!!!

(intro)
e|---------------------------------------------------------------------------|
B|---------------------------------------------------------------------------|
G|---4s6-6-6-666-4-2-4-2-2-----2----22---------------------------------------|
D|-------------------------2h4---h4------------------------------------------|
A|---------------------------------------------------------------------------|
E|---------------------------------------------------------------------------|

e|---------------------------------------------------------------------------|
B|-----------------------------------------------------------------5b7-7r5---|
G|--4s6-6-6-666-4-2-4-2-2------4b5-5-5r4-2-----2----2-2--4b5--2-2------------|
D|-----------------------------------------2h4---h4------------4-------------|
A|---------------------------------------------------------------------------|
E|---------------------------------------------------------------------------|

e|---------------------------------------------------------------------------|
B|------------------------------------3s5-5----------3s5-5~------------------|
G|--4s6-6-6-666-4-2-4-2-2----2h4p2-----------2h4p2---------------------------|
D|---------------------------------4----------------4------------------------|
A|---------------------------------------------------------------------------|
E|---------------------------------------------------------------------------|
(Verse)
A     E       G     D  
Sunsets over the beaches from now on
[Riff 1]
e|---------------------------------------------------------------------------|
B|---------------------------------------------------------------------------|
G|--6b7--4---4b5--2----------------------------------------------------------|
D|------7-------5------------------------------------------------------------|
A|---------------------------------------------------------------------------|
E|---------------------------------------------------------------------------|
A     E           G       D
Each day looking for new ways, to go on
Repeat riff 1

(Chorus)

A                        E   G         D
    Maybe i should drop by, maybe i shoulda called
[Riff 2]
e|---------------------------------------------------------------------------|
B|---------------------------------------------------------------------------|
G|------------2h4p2----------------------------------------------------------|
D|---------2h4---------------------------------------------------------------|
A|------2h4------------------------------------------------------------------|
E|---------------------------------------------------------------------------|

A                     E      G       D
   Maybe i shoulda followed you and beat down your door
[Riff 3]
e|---------------------------------------------------------------------------|
B|---------------------------------------------------------------------------|
G|---4p2-2-2-----------------------------------------------------------------|
D|------4--------------------------------------------------------------------|
A|---------------------------------------------------------------------------|
E|---------------------------------------------------------------------------|

A                         E     G                   D              
    Maybe its gonna be breakin you every time you fall
E                                   F#m             D    Dsus4   D
But to shower you with pitty, till your no good at all


(verse)
Slow burn Wtching the world turn from my arms [riff 1]
New way of measuring each day till its gone   [riff 1]

(chorus)
Maybe i should drop by, maybe i shoulda called  [riff 2]
Maybe i shoulda followed you and beat down your door [riff 3]
Maybe its gonna be breakin you every time you fall
But to shower you with pity will do you no good at all

(verse)
Sunrise builing a reprise in my heart  [riff 1]
Regret tight around my chest plays its part [hold D]


(solo)

e|---------------------------------------------------------------------------|
B|--10~----------------------------------------------------------------------|
G|-----9h11p9---6h7p6h7p6----------------------------------------------------|
D|------------------------7-------7--9-9p7-7--9b10r9--7--7-7------------------|
A|---------------------------5s7-9--------9------------9---------------------|
E|---------------------------------------------------------------------------|

e|--------------10-11-12-----------------------------------------------------|
B|---10~--12b13----------12b13r12p10--10-------------------------------------|
G|----------------------------------12---------------------------------------|
D|---------------------------------------------------------------------------|
A|---------------------------------------------------------------------------|
E|---------------------------------------------------------------------------|


E                             F#m                 D
But to shower you with pity till your no good at all
Dsus4       D
No good at all


(outro)
[riff 1]
Watchin those sunsets sunstes sunsets sunsets
[riff 1]
Over them beaches beaches beaches beaches  

Reapet outro till finish     









| /  slide up| \  slide down
| h  hammer-on
| p  pull-off
| ~  vibrato
| +  harmonic
| x  Mute note
===============================================================================
            
Submit corrections

comments powered by Disqus
↑ Back to top | Powderfinger Tabs for Sunsets. Lyrics for acoustic guitar and electric guitar. Tablatures and chords are parodies/interpretations of the original songs. You may use it for private study, scholarship, research or language learning purposes only