» » »

Roll Right By You Tabs (ver.1)

Artists:  A B C D E F G H I J K L M N O P Q R S T U V W X Y Z # 

Roll Right By You Tabs (ver.1)

Powderfinger
Rating:
0/5 (0 votes)

Hard to play? Try these video lessons and learn fast.
                POWDERFINGER
ROLL RIGHT BY YOU
VULTURE STREET
BY RYAN

VERSE

GUITARS TUNDED DOWN HALF A STEP
    A#m   F#
Eb-|-2-----3----|-
Bb-|-3-----3----|-
Gb-|-4-----4----|-
Db-|-4-----5----|-
Ab-|-2-----5----|-
Eb-|-------3----|-

OVERLAY
Eb-|---------------------------------------------|-
Bb-|-------7--9-9b10r9--7-----7------------7-----|-
Gb-|-------7--9-9b10r9--7-----7------------7-----|-
Db-|--9--9-7--9-9b10r9--7--9--7---9--7-9-9---9-9-|-
Ab-|---------------------------------------------|-
Eb-|---------------------------------------------|-

CHORUS:

    Eb                 C#     C#/C     G#
Eb|-----0-0-----0-0--------------------5------|
Bb|-----0-0-----0-0--------------------5------|
Gb|-9-9-1-1-9-9-1-1---7-7-7--7-7-7-----6------|
Db|-9-9-2-2-9-9-2-2---7-7-7--7-7-7-----7------|
Ab|-7-7-2-2-7-7-2-2---5-5-5--4-4-4-----7------|
Eb|-----0-0-----0-0--------------------5------|

Solo Rhythm
Eb|----------------------------------|
Bb|-3---3---3---3--------------------|
Gb|-6---6---6---6--------------------|
Db|-6---6---6---6---7---7---7---7----|
Ab|-4---4---4---4---7---6---7---6----|
Eb|-----------------5---5---5---5----|
            
Hard to play? Try these video lessons and learn fast. | Correct




comments powered by Disqus
↑ Back to top | Tablatures and chords are parodies/interpretations of the original songs. You may use it for private study, scholarship, research or language learning purposes only