» » »

Powderfinger, Rockin Rocks Tabs (ver.1)

Artists:  A B C D E F G H I J K L M N O P Q R S T U V W X Y Z # 

Rockin Rocks Tabs (ver.1)

Powderfinger Tabs
 Rating:
4/5 (4 votes)
Rockin Rocks lessons Tabs too difficult? Try these video lessons and learn fast
1
                artist - Powerderfinger 
song - rockin' rocks

full credit goes out to powderfinger for this fine song!

 theres 2 guitars i only tabbed guitar one.


Intro (guitar 1)

-------------------------------------------------------------
-------------------------------------------------------------
-------------------------------------------------------------
---7-7-7-7-7-7-7-7--10--12---10101010101010------------------    x6
---7-7-7-7-7-7-7-7--8---10---10101010101010------------------
---5-5-5-5-5-5-5-5-----------8-8-8-8-8-8-8-------------------

-------------------------------------------------------------
-------------------------------------------------------------
---------------------------5-5-5-5---------------------------
---7-7-7-7---5---3-3-3-3---5-5-5-5---------------------------    x2
---7-7-7-7---5---3-3-3-3---3-3-3-3---------------------------
---5-5-5-5---3---1-1-1-1-------------------------------------


------------------------------------------------------------
------------------------------------------------------------
---777777777---9-1010101010---------------------------------
---777777777---9-1010101010---------------------------------     x1
---555555555---7-8-8-8-8-8---5-5-5-5------------------------
-----------------------------3-3-3-3------------------------

verse
-------------------------------------------------------------
-------------------------------------------------------------
-------------------------------------------------------------
---7-7-7-7-7-7-7-7--10--12---10101010101010------------------    x6
---7-7-7-7-7-7-7-7--8---10---10101010101010------------------
---5-5-5-5-5-5-5-5-----------8-8-8-8-8-8-8-------------------


chours

-------------------------------------------------------------
-------------------------------------------------------------
---------------------------5-5-5-5---------------------------
---7-7-7-7---5---3-3-3-3---5-5-5-5---------------------------    x2
---7-7-7-7---5---3-3-3-3---3-3-3-3---------------------------
---5-5-5-5---3---1-1-1-1-------------------------------------


------------------------------------------------------------
------------------------------------------------------------
---777777777---9-1010101010---------------------------------
---777777777---9-1010101010---------------------------------     x1
---555555555---7-8 8 8 8 8---5-5-5-5------------------------
-----------------------------3-3-3-3------------------------

(drum solo)

chours

-------------------------------------------------------------
-------------------------------------------------------------
---------------------------5-5-5-5---------------------------
---7-7-7-7---5---3-3-3-3---5-5-5-5---------------------------    x2
---7-7-7-7---5---3-3-3-3---3-3-3-3---------------------------
---5-5-5-5---3---1-1-1-1-------------------------------------


------------------------------------------------------------
------------------------------------------------------------
---777777777---9-1010101010---------------------------------
---777777777---9-1010101010---------------------------------     x1
---555555555---7-8 8 8 8 8---5-5-5-5------------------------
-----------------------------3-3-3-3------------------------

solo 

------------------------------------------------------------
------------------------------------------------------------
------------------------------------------------------------
---7-7-7-7--7---5-5-5-5--5---3-3-3-3--3---------------------
---7-7-7-7--7---5-5-5-5--5---3-3-3-3--3---------------------
---5-5-5-5--5---3-3-3-3--3---1-1-1-1--1---------------------

chours

-------------------------------------------------------------
-------------------------------------------------------------
---------------------------5-5-5-5---------------------------
---7-7-7-7---5---3-3-3-3---5-5-5-5---------------------------    
---7-7-7-7---5---3-3-3-3---3-3-3-3---------------------------
---5-5-5-5---3---1-1-1-1-------------------------------------


------------------------------------------------------------
------------------------------------------------------------
---777777777---9-1010101010---------------------------------
---777777777---9-1010101010---------------------------------    
---555555555---7-8 8 8 8 8---5-5-5-5------------------------
-----------------------------3-3-3-3------------------------

outro

-------------------------------------------
-------------------------------------------
--------7--5-------------------------------
----5---7--5-------------------------------
----5---5--3-------------------------------
----3--------------------------------------

rate my tab plz
            
Submit corrections

comments powered by Disqus
↑ Back to top | Powderfinger Tabs for Rockin Rocks. Lyrics for acoustic guitar and electric guitar. 1 Tablatures and chords are parodies/interpretations of the original songs. You may use it for private study, scholarship, research or language learning purposes only