» » »

Pick You Up Tabs (ver.2)

Artists:  A B C D E F G H I J K L M N O P Q R S T U V W X Y Z # 

Pick You Up Tabs (ver.2)

Powderfinger
Rating:
0/5 (0 votes)

Hard to play? Try these video lessons and learn fast.
                Pick You Up 			
Powderfinger 

Song written by Bernard Fanning and Powderfinger

Verse 1
  E                       F#          A
  _____ > _ > _____ > _ > _____ > _ > _____ > _ > 
1|------0---0-------0---0-------2---2-------5---5--|
2|------0---0-------0---0-------2---2-------5---5--|
3|1-1-1-1-1-1-1-1-1-1-1-1-3-3-3-3-3-3-6-6-6-6-6-6--|
4|2-2-2-2-2-2-2-2-2-2-2-2-4-4-4-4-4-4-7-7-7-7-7-7--|
5|2-2-2-2-2-2-2-2-2-2-2-2-4-4-4-4-4-4-7-7-7-7-7-7--|
6|0-0-0-0-0-0-0-0-0-0-0-0-2-2-2-2-2-2-5-5-5-5-5-5-0|
          When you're set to throw in your hand

  E                       F#          A
  _____ > _ > _____ > _ > _____ > _ > _____ > _ > 
1|------0---0-------0---0-------2---2-------5---5--|
2|------0---0-------0---0-------2---2-------5---5--|
3|1-1-1-1-1-1-1-1-1-1-1-1-3-3-3-3-3-3-6-6-6-6-6-6--|
4|2-2-2-2-2-2-2-2-2-2-2-2-4-4-4-4-4-4-7-7-7-7-7-7--|
5|2-2-2-2-2-2-2-2-2-2-2-2-4-4-4-4-4-4-7-7-7-7-7-7--|
6|0-0-0-0-0-0-0-0-0-0-0-0-2-2-2-2-2-2-5-5-5-5-5-5-0|
          When you are far from home

 E                       F#          A
  _____ > _ > _____ > _ > _____ > _ > _____ > _ > 
1|------0---0-------0---0-------2---2-------5---5--|
2|------0---0-------0---0-------2---2-------5---5--|
3|1-1-1-1-1-1-1-1-1-1-1-1-3-3-3-3-3-3-6-6-6-6-6-6--|
4|2-2-2-2-2-2-2-2-2-2-2-2-4-4-4-4-4-4-7-7-7-7-7-7--|
5|2-2-2-2-2-2-2-2-2-2-2-2-4-4-4-4-4-4-7-7-7-7-7-7--|
6|0-0-0-0-0-0-0-0-0-0-0-0-2-2-2-2-2-2-5-5-5-5-5-5-0|
      When what you believe is buried in your hands

 E                       F#          A
  _____ > _ > _____ > _ > _____ > _ > _____ > _ > 
1|------0---0-------0---0-------2---2-------5---5--|
2|------0---0-------0---0-------2---2-------5---5--|
3|1-1-1-1-1-1-1-1-1-1-1-1-3-3-3-3-3-3-6-6-6-6-6-6--|
4|2-2-2-2-2-2-2-2-2-2-2-2-4-4-4-4-4-4-7-7-7-7-7-7--|
5|2-2-2-2-2-2-2-2-2-2-2-2-4-4-4-4-4-4-7-7-7-7-7-7--|
6|0-0-0-0-0-0-0-0-0-0-0-0-2-2-2-2-2-2-5-5-5-5-5-5-0|
            When you feel outgrown
 
Chorus

C#sus E F#
  > 
1|4---0-2-2-2-2-2-2-2-2|
2|4---0-2-2-2-2-2-2-2-2|
3|6---1-3-3-3-3-3-3-3-3|
4|6---2-4-4-4-4-4-4-4-4|
5|4---2-4-4-4-4-4-4-4-4|
6|4---0-2-2-2-2-2-2-2-2|
  I'll be the one to pick you up again

C#sus E F#
  > 
1|4---0-2-2-2-2-2-2-2-2|
2|4---0-2-2-2-2-2-2-2-2|
3|6---1-3-3-3-3-3-3-3-3|
4|6---2-4-4-4-4-4-4-4-4|
5|4---2-4-4-4-4-4-4-4-4|
6|4---0-2-2-2-2-2-2-2-2|
  When you decide you've had enough of it

C#sus E F#
  > 
1|4---0-2-2-2-2-2-2-2-2|
2|4---0-2-2-2-2-2-2-2-2|
3|6---1-3-3-3-3-3-3-3-3|
4|6---2-4-4-4-4-4-4-4-4|
5|4---2-4-4-4-4-4-4-4-4|
6|4---0-2-2-2-2-2-2-2-2|
  I'll be the one

C#sus E F#
  > 
1|4---0-2-2-2-2-2-2-2-2|
2|4---0-2-2-2-2-2-2-2-2|
3|6---1-3-3-3-3-3-3-3-3|
4|6---2-4-4-4-4-4-4-4-4|
5|4---2-4-4-4-4-4-4-4-4|
6|4---0-2-2-2-2-2-2-2-2|
  I'll be the one

Interlude

Guitar 1
C#sus        Bsus F# 
1|4-4-4-4-4-4-2-2-2-2-2-2-2|
2|4-4-4-4-4-4-2-2-2-2-2-2-2|
3|6-6-6-6-6-6-4-4-3-3-3-3-3|
4|6-6-6-6-6-6-4-4-4-4-4-4-4|
5|4-4-4-4-4-4-2-2-4-4-4-4-4|
6|4-4-4-4-4-4-2-2-2-2-2-2-2|

Guitar 2
C#m, C#sus   Bsus F# 
              {3} {3} 
1|4-4-4-4-4-4-222-222-2-2-2|
2|5-5-4-5-4-5-222-222-2-2-2|
3|6-6-6-6-6-6-444-333-3-3-3|
4|6-6-6-6-6-6-444-444-4-4-4|
5|4-4-4-4-4-4-222-444-4-4-4|
6|4-4-4-4-4-4-222-222-2-2-2|

Guitar 3
1|9(10)9-------------------|
2|-------------------------|
3|-------------------------|
4|------9(10)9-------------|
5|-------------------------|
6|-------------------------|

Additional lyrics

Verse 2
When your speech is slow
When your eyes are closed

When you feel betrayed
When your heart is 'fraid

When your feet are cold
When your sights are low

Vocal adlib at end
I'll be the one
I'll be the one
I'll be the one
I'll be the one
When you decide you've had enough
When you decide you've had enough
When you are set to throw it in
When you've had enough
When you're set to throw it in
When you're set to throw it in
When you're set to throw it in
Throw it in
Throw it in

Order of play

Verse 1

Chorus

Verse 2

Chorus 

Interlude w/vocal adlib (first three lines)

Verse 1

Chorus

Interlude w/vocal adlib

Tab Symbols
                         {3}                 ___ 
1|9(10)9-----------------000--------------------|
2|-----------------------000--------------------|
3|-----------------------000-----------------4-4|
4|-----------------------000-----------------4-4|
5|-----------------------000-----------------2-2|
6|-----------------------000-----------------2-2|
  Bend and release  triplet rhythm       Palm Muting

          > >
1|--------0-0|
2|--------0-0|
3|--------1-1|
4|--------2-2|
5|--------2-2|
6|--------0-0|
Play chord agressively
            
Hard to play? Try these video lessons and learn fast. | Correct




comments powered by Disqus
↑ Back to top | Tablatures and chords are parodies/interpretations of the original songs. You may use it for private study, scholarship, research or language learning purposes only