>
 >
On My Mind 4

On My Mind 4 Guitar Tabs

Powderfinger - On My Mind 4 chords, tabs, tablatures, lyrics

Guitar lessons | Add/correct | Request | Top 50 tabs Artists:  A B C D E F G H I J K L M N O P Q R S T U V W X Y Z 0-9

On My Mind 4 Guitar Tabs – Powderfinger

CD, Sheet music, Poster

Do you like On My Mind 4? Share with your friends now
Bass TabsTabsTabs v2Tabs v3Tabs v4
Solo before the second verse:

   1 + 2 + 3 + 4 + 1 + 2 + 3 + 4 + 1 + 2 + 3 + 4 + 1 + 2 + 3 + 4 +

E-------------------------------------------------------------------|
B--6-6-6-6-6-6-6-6-6-6-6-6-6-6-6-6-6-6-6-6-6-6-6-6-6---6---6--------|
G--8b1010101010101010101010101010109-9-9-9-9-9-9-9-9---6---6--------|
D----------------------------------^---------------------------8----|
A----------------------------------|--------------------------------|
E---------------------------------(Release to nine)-----------------|

E--6-6-6-6-6-6-6----------------------------------------------------|
B--6-6-6-6-6-6-6-9-9-9-9-9-9-9-9-9-----6---6---6-6-6-6-6-6-6-6-6-6--|
G--------------------------------------6---6---6-8b1010101010101010-|
D----------------------------------8-----8---8----------------------|
A-------------------------------------------------------------------|
E-------------------------------------------------------------------|




This bit is played over the second half of the verse (twice):

   1 + 2 + 3 + 4 + 1 + 2 + 3 + 4 + 1 + 2 + 3 + 4 + 1 + 2 + 3 + 4 +

E-(played on each strum of the chords)------------------------------|
B-------------------------------------------------------------------|
G-------------------------------------------------------------------|
D--------------------------6-------8-8-8-8---8-8---8-1313--13--13---|
A--------4-----6-----8-------------8-8-8-8---8-8---8-1313--13--13---|
E--6-------------------------------6-6-6-6---6-6---6-1111--11--11---|




This is the solo after the build up, though you probably know it from 

the other tabs (played four times):

   1 + 2 + 3 + 4 + 1 + 2 + 3 + 4 + 1 + 2 + 3 + 4 + 1 + 2 + 3 + 4 +

E--6-6-6-6-6-6-6-6-6-6-6-6-6-6-6-6-4-4-4-4-4-4-4-4-4-3-3-3-3-3-3-3--|
B--6-6-6-6-6-6-6-6-6-6-6-6-6-6-6-6-4-4-4-4-4-4-4-4-4-4-4-4-4-4-4-4--|
G-------------------------------------------------------------------|
D-------------------------------------------------------------------|
A-------------------------------------------------------------------|
E-------------------------------------------------------------------|




This bit is in the outro (played four times):

   1 + 2 + 3 + 4 + 1 + 2 + 3 + 4 + 1 + 2 + 3 + 4 + 1 + 2 + 3 + 4 +

E--6p4-------------6p4----------------------------------------------|
B------6---------------6---------------------------6p4--------------|
G------------------------------------------------------6------------|
D-------------------------------------------------------------------|
A-------------------------------------------------------------------|
E-------------------------------------------------------------------|



So that's all the solos and stuff, the chords you should already know.





Comments


Popular Powderfinger tabs & chords
Belter Bass Tabs
Don't Wanna Be Left Out Bass Tabs
My Happiness Bass Tabs
Head Up In The Clouds Chords
My Happiness Chords
My Happiness Tabs
My Kinda Scene Tabs
Jc Ukulele
Lost And Running Ukulele
My Kind Of Scene Ukulele


Song lyrics



↑ Back to top | Tablatures and chords are parodies/interpretations of the original songs. You may use it for private study, scholarship, research or language learning purposes only
© 2014 AZChords.com Contact us | Privacy policy | DMCA | Add/correct tabs | Request tabs | Top 50 tabs