» » »

Powderfinger, On My Mind Tabs (ver.2)

Artists:  A B C D E F G H I J K L M N O P Q R S T U V W X Y Z # 

On My Mind Tabs (ver.2)

Powderfinger Tabs
 Rating:
4/5 (4 votes)
On My Mind lessons Tabs too difficult? Try these video lessons and learn fast
1
                played with 2 guitars (when theres lead just play the verse)

tuning : standard
it is played in flat by the finger. if u put it in flat just move everything up 1 fret. and on the second bridge where there is (-688--) at the end play (022100)

Guitarists: Lead-Ian haugh
            Rythm-Darren middleton (and run in second verse)
|-----------------|
|-----------------|
|-----------------|
|---8-8-8-8-8\0---|
|---8-8-8-8-8\0---|
|---6-6-6-6-6\0---|

Verse
|-------------------------------|
|-------------------------------|
|-------------------------8-8---|
|---8-8-8-8-8-8-6-6-6-x-x-8-8---|
|---8-8-8-8-8-8-6-6-6-x-x-6-6---|
|---6-6-6-6-6-6-4-4-4-x-x-------|

chorus
|----------------------------------------------------------------------------------|
|----------------------------------------------------------------------------------|
|--------------------------------------------8---8---8---8-888---8---8---8---8-888-|
|---8---8---8---8-888----8---8---8---8-888---8---8---8---8-888---8---8---8---8-888-|
|---8---8---8---8-888----8---8---8---8-888-0-6-0-6-0-6-0-6-666-0-6-0-6-0-6-0-6-666-|
|-0-6-0-6-0-6-0-6-666--0-6-0-6-0-6-0-6-666-----------------------------------------|

bridge
|----------------------------|
|----------------------------|
|---10-----8------6----------|
|---10-----8------6------3---|
|---8------6------4------3---|
|------------------------1---|

solo 1
|------------------------------------------------|
|--6-6-6-6-6-6-6-6-6--6-6-6-6-6-6-6--6-6-6-6-6-6--|
|--8b8b8b8b8b8b8b8b8r-8-8-8-8-8-8-8--6-6-6-6-6-6--|
|----(hold bend)---------------------------------|
|------------------------------------------------|
|------------------------------------------------|

|----6666666-9999999-----------------------------|
|----6666666-9999999----------------------------|
|---------------------8b9-8-6-8-6----8-8-8-8-8---while bending)-|
|---------------------------------8---------|
|-------------------------------------------------|
|-------------------------------------------------|

verse
|-------------------------------|
|-------------------------------|
|-------------------------8-8---|
|---8-8-8-8-8-8-6-6-6-x-x-8-8---|
|---8-8-8-8-8-8-6-6-6-x-x-6-6---|
|---6-6-6-6-6-6-4-4-4-x-x-------|

Run (on third and forth times of verse)
when in flat play (-688--) as (022100)
|---------------------------------|
|---------------------------------|
|----------------------------8-8--|
|------------6h8p6-6-6-6-x-x-8-8--|
|-------6-8--------6-6-6-x-x-6-6--|
|---6-9------------4-4-4-x-x------|

chorus
|----------------------------------------------------------------------------------|
|----------------------------------------------------------------------------------|
|--------------------------------------------8---8---8---8-888---8---8---8---8-888-|
|---8---8---8---8-888----8---8---8---8-888---8---8---8---8-888---8---8---8---8-888-|
|---8---8---8---8-888----8---8---8---8-888-0-6-0-6-0-6-0-6-666-0-6-0-6-0-6-0-6-666-|
|-0-6-0-6-0-6-0-6-666--0-6-0-6-0-6-0-6-666-----------------------------------------|
                   |                    |                   |                   |
                   at these possitions make up a little lick 
                   darren plays. it for first 2 do it on g and b
                   and the second do it on g and b in 10 (penatonic style)
bridge
|-----------------------------------|
|-----------------------------------|
|---10-----8------6-------------8---|
|---10-----8------6------3------8---|
|---8------6------4------3------6---|
|------------------------1----------|

interlude
|-----------------|
|-----------------|
|-----------------|
|---8-8-8-8-8\0---|
|---8-8-8-8-8\0---|
|---6-6-6-6-6\0---|

solo 2
|---6-6-6-6-6-6-6-6-6-6-4-4-4-4-4-4-3-3-3-3---|
|---6-6-6-6-6-6-6-6-6-6-4-4-4-4-4-4-4-4-4-4---|
|---------------------------------------------|
|---------------------------------------------|
|---------------------------------------------|
|---------------------------------------------|
 
|---6-6-6-6-6-6-6-6-6-6-4-4-4-4-4-4h6-6-6-6-6-6---|
|---6-6-6-6-6-6-6-6-6-6-4-4-4-4-4-4h6-6-6-6-6-6---|
|-------------------------------------------------|
|-------------------------------------------------|
|-------------------------------------------------|
|-------------------------------------------------|   repeat 
 
|-----6-----------6-------------------6----------6---------------------|
|--------9---6------9---6----------------9---5-----9---5---------------|
|----------------------------8b-6----------------------------8-8-8-8---|
|------------------------------------------------------------8-8-8-8---|
|------------------------------------------------------------6-6-6-6---|
|----------------------------------------------------------------------|
            
Submit corrections

comments powered by Disqus
↑ Back to top | Powderfinger Tabs for On My Mind. Lyrics for acoustic guitar and electric guitar. 1 Tablatures and chords are parodies/interpretations of the original songs. You may use it for private study, scholarship, research or language learning purposes only