» » »

Powderfinger, Love Your Way Chords (ver.1)

Artists:  A B C D E F G H I J K L M N O P Q R S T U V W X Y Z # 

Love Your Way Chords (ver.1)

Powderfinger Tabs
 Rating:
4.7/5 (15 votes)
Love Your Way lessons Tabs too difficult? Try these video lessons and learn fast
                Love your way by powderfinger
Standard E tuning

This is one of my all time favourite songs by Powderfinger.

F#m   244222
D     xx0232
E     022100

Bar Chords - For chorus and verse 3 (as the memory gathers dust...)

D   557775
A   577655
E   779997
B   799877

Intro:
F#m D
F#m E D
F#m D
F#m E D

F#m				D
   I got to keep moving to stay warm
F#m		    E			D
   'cause I'm freezing in this room
F#m              D
   And if I prove no good here
  F#m E             D
I'll skip to where I should
F#m              D
It's only an imaginary
 F#m        E	  D
vigil that we keep
F#m             D
You salvage what you need
F#m            E            D
I'll take the love you leave

NOTE: The chorus is played in bar chords

CHORUS
D A E B
      I love your way
D A E B
      I can't explain
D A E B
 	 What made me change
D A E B

E |------------------------------------------------------------|
B |----------10--------12--10-------------10----------10-------|
G |---9h11-------11------------11---9h11------11--11-----------|
D |------------------------------------------------------------|
A |------------------------------------------------------------|
E |------------------------------------------------------------|

F#m E D
E |---------------------------------12-----12------10-----10---|
B |----------10--------12p10----10-----------------------------|
G |---9h11-------11----------11---------11----11-------11------|
D |------------------------------------------------------------|
A |------------------------------------------------------------|
E |------------------------------------------------------------|

F#m            D     F#m  E      D
I'm wading in deeper ever deeper as I go
F#m		  D			 F#m     E	  D
I drown the whole idea as I drift away from you
F#m           D	   F#m    E     D
It's only an imaginary vigil that we keep
F#m          D            F#m       E           D
You salvage what you need I'll take the love you leave


CHORUS
D A E B
      I love your way
D A E B
      I can't explain
D A E B
 	 What made me change
D A E B

D              A                 E
  And as the memory gathers dust,
   B                 D
buried in its crust
           A                         E
Are the remains of what we've done
                        B	      D
and the seeds of what we just begun
      A                 E
The tapping of the rain
            B            D
beats a corrugated drum
      A                  E              B
And the city glow well it pulses on to the city hum


D              A                 E
  And as the memory gathers dust,
   B                 D
buried in its crust
           A                         E
Are the remains of what we've done
                        B	      D
and the seeds of what we just begun
      A                 E
The tapping of the rain
            B            D
beats a corrugated drum
      A                  E              B
And the city glow well it pulses on to the city hum
CHORUS
D A E B
      I love your way
D A E B
      I can't explain
D A E B
 	 What made me change
D A E B

Powderfinger ROCK!!!
            
Submit corrections

comments powered by Disqus
↑ Back to top | Powderfinger Chords for Love Your Way. Lyrics for acoustic guitar and electric guitar. Tablatures and chords are parodies/interpretations of the original songs. You may use it for private study, scholarship, research or language learning purposes only