» » »

Powderfinger, I Don't Remember Chords (ver.1)

Artists:  A B C D E F G H I J K L M N O P Q R S T U V W X Y Z # 

I Don't Remember Chords (ver.1)

Powderfinger Tabs
 Rating:
4/5 (4 votes)
I Don't Remember lessons Tabs too difficult? Try these video lessons and learn fast
1
                Tune down 1/2 step.

Verse
Am D F C

Pre-Chorus
Dm F C Bb F

Chorus
C Dm F Bb C Dm F 
C G F Bb C G F

The Riff
Eb-|---------------------------------------|
Bb-|-----8--7---7-----------10--8----------|
Gb-|---9------9-----9-7--10---------9-7-9--|
Db-|-7-------------------------------------|
Ab-|---------------------------------------|
Eb-|---------------------------------------|


Eb-|--------------------------------------------------------|
Bb-|-----------8--7---7-----------10--8---------------------|
Gb-|-7-------9------9-----9-7--10---------9-7-9---7---------|
Db-|---10--7----------------------------------------10-7~~--|
Ab-|--------------------------------------------------------|
Eb-|--------------------------------------------------------|

Verse
Pre-Chorus
Chorus

SOLO CHORDS:
Am Dsus4 F C

The Riff

BRIDGE CHORDS:
E5 A5 C5 F5

Chorus

LAST CHORUS:
C Dm F Bb C Dm F 
C Dm F Bb C G F
            
Submit corrections

comments powered by Disqus
↑ Back to top | Powderfinger Chords for I Don't Remember. Lyrics for acoustic guitar and electric guitar. 1 Tablatures and chords are parodies/interpretations of the original songs. You may use it for private study, scholarship, research or language learning purposes only