» » »

Powderfinger, How Far Have We Really Come? Chords (ver.1)

Artists:  A B C D E F G H I J K L M N O P Q R S T U V W X Y Z # 

How Far Have We Really Come? Chords (ver.1)

Powderfinger Tabs
Rating:
0/5 (0 votes)
How Far Have We Really Come? lessons Tabs too difficult? Try these video lessons and learn fast
                
*-----------------------------*
* Powderfinger                *
* How Far Have We Really Come *
*-----------------------------*


Capo on 7th fret


INTRO
-----

I don't know how accurate this is but it sounds close enough.


    Am                   G                  F               C               

E|--------------0-------------------0----------------0------------0-----0------|
B|---------0h1--1--------------0h1--1------------------------------------------|
G|---------2-------------------0-------0----2--5~------2----0~~-----------0----|
D|--2~~------------2p0-------------------0--3--3~--------3--2~~-----0h2-----2--|
A|--0~~----------------0-------------------------------------------------------|
E|-----------------------3~~---------------------------------------------------|


Verses: Am, G, F, C
------------------

Chorus: F, C/E, Dm, C/E
-----------------------

Bridge: G, Am, C
----------------


Lyrics
------

Despite the miseries 
And the lessons learned from history
The pattern still repeats
Never to surrender don't you ever repeat 

How far have we really come?
Until the ones who are leading us
Make peace their resolution tonight
Make peace your resolution tonight

There's an arms race to be run
Building bigger better dagger headed bombs
So let's drink to the daughters and sons
Never to return to their mother's arms

How far have we really come?
Until the ones who are leading us
Make peace their resolution tonight
Make peace your resolution tonight

For every battle lost and won are these the ones that we offer up?

How far have we really come?
Until the ones who are leading us
Make peace their resolution tonight
Make peace your resolution tonight
            
Submit corrections

comments powered by Disqus
↑ Back to top | Powderfinger Chords for How Far Have We Really Come?. Lyrics for acoustic guitar and electric guitar. Tablatures and chords are parodies/interpretations of the original songs. You may use it for private study, scholarship, research or language learning purposes only